Accordium Delectus Подборка аккордов
 
Главная > И > Иностезия > Ещё одно лето

Иностезия: Ещё одно лето



Вступление:

E|------------------------------------------------------0-|
H|------------------------------------------------------0-|
G|---0-2---0-2---0-----2-----2-----------0--------------2-|
D|-2-----2-----2---2-4---2-4---2-4---0>2----------------2-|
A|---------------------------------3-------3-2-0----0-----|
E|-----------------------------------------------3--------|

E|----------------------------------------------------0---|
H|----------------------------------------------------0---|
G|---0-2---0-2---0-----2-----2---------0--------------2---|
D|-2-----2-----2---2-4---2-4---2-4---2----------------2---|
A|---------------------------------3-----2---0----0-------|
E|---------------------------------------------3----------|

E|------------------------------------------------------0-|
H|------------------------------------------------------0-|
G|---0-2---0-2---0-----2-----2-----------0--------------2-|
D|-2-----2-----2---2-4---2-4---2-4---0>2----------------2-|
A|---------------------------------3-------3-2-0----0-----|
E|-----------------------------------------------3--------|

E|------------------------------------------------------0-|
H|------------------------------------------------------0-|
G|---0-2---0-2---0-----2-----2---------0----------------2-|
D|-2-----2-----2---2-4---2-4---2-4---4---4--------------2-|
A|---------------------------------5-------5-3-0---0------|
E|-----------------------------------------------3--------|

|Asus2  Asus2|Fmaj7-5  Fmaj7-5| - 2 раза

Asus2                                  Fmaj7-5                    
От сюжета уходит скоротечное лето,
Asus2                                 Adim                        
Предлагая в итоге открытый финал
Asus2                                       Fmaj7-5                          
В убегающих титрах наша роль незаметна,
Asus2                                      Adim                        
Продолжение будет неизвестно когда

Проигрыш:

E|------------------------------------------------------0-|
H|------------------------------------------------------0-|
G|---0-2---0-2---0-----2-----2-----------0--------------2-|
D|-2-----2-----2---2-4---2-4---2-4---0>2----------------2-|
A|---------------------------------3-------3-2-0----0-----|
E|-----------------------------------------------3--------|

E|----------------------------------------------------0---|
H|----------------------------------------------------0---|
G|---0-2---0-2---0-----2-----2---------0--------------2---|
D|-2-----2-----2---2-4---2-4---2-4---2----------------2---|
A|---------------------------------3-----2---0----0-------|
E|---------------------------------------------3----------|

A                           H                       
Где свобода от тёплого плена
B                             A                          
Этих мелочных, солнечных дней
Dmaj7                                C#m                             
К сладкой жизни мы липнем от лени,
Hm                                     E                      
Нить потерялась в беспечной игре

Припев:

A                                                G                  
Карта двух полушарий на стене туалета,
D                                                        A                   
Все масштабы смешались в рамках этого лета

|A  A|G  G|

D                              A                     
Ещё одно лето, ещё одно лето!

Проигрыш:

|Am  Am|F  G|F  G|Am  Asus2|

Вечером тают тени в округе,
В луже газета пустых новостей
У старых друзей новые подруги,
А на крышах всё тот же рассвет

Долгие планы сбиваются в стаи,
Молча отправлен в архив черновик
С чистых листов побегут по спирали
Понедельники - не уловить!

Припев.

Проигрыш:

|F#m  F#m|Asus2  Asus2 A| - 2 раза |C#m  C#m|H  H| - 2 раза

Кончилось лето как лёгкие деньги,
Осень попросит мелкую медь
Сходимся вместе и снова, как в детстве,
Asus2                                        C                G                 
Мы смотрим добрее, но больно трезветь...

На поминках прошедшего лета
Набираемся в дым с молодым сентябрём,
И пускай новых песен не спето,
Всё, что есть, погромче споём

Припев.

Окончание:

|Am  Am|F  G|F  G|Am  Asus2| - 3 раза |Am  Am|F  G|F  G|Am|

Бой на гитаре (примерный вариант):

 


 
Последние комментарии

"Спасибо! отличная песня."
 

"Интересно кто так бездарно подбирает?! В оригинале слабо что ли?"
 

"Простая и в тоже время прекрасная,душевная песня.Спасибо!"
 

"Дзякуй"
 

"Показать окорды"
Статистика

Онлайн всего: 58
Гостей: 58
Пользователей: 0
Вход на сайт