Accordium Delectus Подборка аккордов
 
ГлавнаяА > Андреев Иван > Неубранная копна

Иван Андреев: Неубранная копна

(на стихи Валентина Павлова)
 


     Dm                   E                  Am                                      

E|-------------1-------------------0-------------------0-------------------0-------|

H|---------3-------3-----------0-------0-----------1-------1-----------1-------1---|

G|-------2---2---2---2-------1---1---1---1-------2---2---2---2-------2---2---2---2-|

D|----0-------------------2--------------------------------------------------------|

A|--------------------------------------------0-------------------0----------------|

E|---------------------------------------------------------------------------------|

        Ле-жу               в неу      бран        ной      коп        не                   

     Dm                  G                    C                  A7                

E|-------------1-------------------3-------------------0-------------------0-------|

H|---------3-------3-----------0-------0-----------1-------1-----------2-------2---|

G|-------2---2---2---2-------0---0---0---0-------0---0---0---0-------0---0---0---0-|

D|----0----------------------------------------------------------------------------|

A|--------------------------------------------3-------------------0----------------|

E|------------------------3--------------------------------------------------------|

      На серд     це                 бла  го     дать                                   

  Dm                                     Am         Am/G         F                  

E|---------1-------------------1-------------------------------------------1-------|

H|-----3-------3-----------3-------3-----------1-----------1-----------1-------1---|

G|---2---2---2---2-------2---2---2---2-------2---2-------2---2-------2---2---2---2-|

D|-0------------------0------------------------------------------------------------|

A|----------------------------------------0----------------------------------------|

E|----------------------------------------------------3-----------1----------------|

 Си я       ют       звёз       ды       в вы          ши          не                 

 

     Dm                   E                  Am                  A7                  

E|-------------1-------------------0-------------------0-------------------0-------|

H|---------3-------3-----------0-------0-----------1-------1-----------2-------2---|

G|-------2---2---2---2-------1---1---1---1-------2---2---2---2-------0---0---0---0-|

D|----0-------------------2--------------------------------------------------------|

A|--------------------------------------------0-------------------0----------------|

E|---------------------------------------------------------------------------------|

    Кому      -                 не   у  га    дать                                  

  Dm                                     Am         Am/G         F                  

E|---------1-------------------1-------------------------------------------1-------|

H|-----3-------3-----------3-------3-----------1-----------1-----------1-------1---|

G|---2---2---2---2-------2---2---2---2-------2---2-------2---2-------2---2---2---2-|

D|-0------------------0------------------------------------------------------------|

A|----------------------------------------0----------------------------------------|

E|----------------------------------------------------3-----------1----------------|

Си я       ют       звёз      ды       в вы          ши          не                 

 

     Dm                   E                  Am                                      

E|-------------1-------------------0-------------------0-------------------0-------|

H|---------3-------3-----------0-------0-----------1-------1-----------1-------1---|

G|-------2---2---2---2-------1---1---1---1-------2---2---2---2-------2---2---2---2-|

D|----0-------------------2--------------------------------------------------------|

A|--------------------------------------------0-------------------0----------------|

E|---------------------------------------------------------------------------------|

   Кому      -                не   у  га     дать                                 

Лежу в неубранной копне,
На сердце благодать!
Сияют звёзды в вышине,
Кому - не угадать
 Сияют звёзды в вышине,
 Кому - не угадать

Пищит комар над головой,
Поймать - да не с руки...
Туман на берег луговой
Крадётся от реки
 Туман на берег луговой
 Крадётся от реки

Тихи ночные омуты,
Воды недвижна гладь
Кругом такая красота,
Что просто не сказать!
 Кругом такая красота,
  Что просто не сказать!

Зови меня - не отзовусь,
Покуда за копной
Я от души не нашепчусь
С полночной тишиной
 Я от души не нашепчусь
 С полночной тишиной

Лежу в неубранной копне,
На сердце благодать!
Сияют звёзды в вышине,
Кому - не угадать
 Сияют звёзды в вышине,
    Кому - не угадать...


 
Последние комментарии

"хорошая песня и разбор хорош"
 

"второй аккорд в припеве АШ, не в тему"
 

"молодец"
 

"а где найти ноты к этой песне"
 

"Исполнение просто супер,нет слов,с душой тревогой в душе!!!Можно слушать и слушать???"
Статистика

Онлайн всего: 65
Гостей: 65
Пользователей: 0
Вход на сайт