Accordium Delectus Подборка аккордов
 
Главная > Я > Яхонт > Ковыль

Яхонт: Ковыль


Вступление (примерный вариант перебора):

  Em           Cmaj7          

E|---------0-------------0---|

H|-----0-----0-------0-----0-|

G|---0---0---------0---0-----|

D|---------------------------|

A|---------------3-----------|

         E|-0-------------------------| - 4 раза

 

  Em           Cmaj7          Em           Cmaj7           

E|---------0-------------0-------------0-------------0---|

H|-----0-----0-------0-----0-------0-----0-------0-----0-|

G|---0---0---------0---0---------0---0---------0---0-----|

D|-------------------------------------------------------|

A|---------------3---------------------------3-----------|

E|-0---------------------------0-------------------------|

      Сон-трава ветру в ночи  молится,                    

 

  Em           Cmaj7          Em            Em7           

E|---------0-------------0-------------0-------------0---|

H|-----0-----0-------0-----0-------0-----0-------0-----0-|

G|---0---0---------0---0---------0---0---------0---0-----|

D|-------------------------------------------0-----------|

A|---------------3---------------------------------------|

E|-0---------------------------0-------------------------|

       А о чём просит,   не знаю                          

 

 Cmaj7          Am            G6            Am            

E|---------0-------------0-------------0-------------0---|

H|-----0-----0-------1-----1-------0-----0-------1-----1-|

G|---0---0---------2---2---------0---0---------2---2-----|

D|-------------------------------------------------------|

A|-3-------------0---------------------------0-----------|

E|-----------------------------3-------------------------|

      Под луной серый ковыль клонится,                    

 

 Em/H           H7            Em            Em7           

E|---------0-------------2-------------0-------------0---|

H|-----0-----0-------0-----0-------0-----0-------0-----0-|

G|---0---0---------2---2---------0---0---------0---0-----|

D|-------------------------------------------0-----------|

A|-2-------------2---------------------------------------|

E|-----------------------------0-------------------------|

        Тени на землю     бросает                         


 Cmaj7          Am            G6            Am             

E|---------0-------------0-------------0-------------0---|

H|-----0-----0-------1-----1-------0-----0-------1-----1-|

G|---0---0---------2---2---------0---0---------2---2-----|

D|-------------------------------------------------------|

A|-3-------------0---------------------------0-----------|

E|-----------------------------3-------------------------|

      Под луной серый ковыль клонится,                    

 

 Em/H           H7            Em            Cmaj7          

E|---------0-------------2-------------0-------------0---|

H|-----0-----0-------0-----0-------0-----0-------0-----0-|

G|---0---0---------2---2---------0---0---------0---0-----|

D|-------------------------------------------------------|

A|-2-------------2---------------------------3-----------|

E|-----------------------------0-------------------------|

        Тени на землю     бросает                         


Проигрыш=Вступление

Ты гори ярче, заря ранняя,
Ты целуй синее небо
А ковыль песню поёт страннику,
Угадай: быль или небыль
А ковыль песню поёт страннику,
Угадай: быль или небыль

Проигрыш=Вступление

А его песни кричат вороны,
И назад путь невозможен
А в бою смерти на всех поровну,
И огня поровну тоже
А в бою смерти на всех поровну,
И огня поровну тоже

Cmaj7  Am             G          Cmaj7   
Ветер мой, что из пепла восстанет,
Cmaj7     Am     G  H7    
Над землёй заря тает

Проигрыш=Вступление

А ковыль, будто землёй сотканный,
Всё стоит, не засыпает,
И живёт тысячу раз топтанный,
И хранит степь, словно память
И живет тысячу раз топтанный,
И хранит степь, словно память...
 
Последние комментарии

"Великолепно!"
 

"Очень приятно слышать песни своей молодости"
 

"Шикарная песня, не уходит изх репертуара вот уже 2 года"
 

"Просто супер! За душу берет"
 

"Отличная песня..."
Вход на сайт