Accordium Delectus Подборка аккордов
 
Главная > Я > Яхонт > Накось!

Яхонт: Накось!




Вступление:

Em  Am  G6  H7/F# - 4 раза

            Em  Am    G6   H7/F# Em Am G6 H7/F#
Эх, не на острове   Буя--не,
             Em  Am    G6 H7/F# Em Am G6 H7/F#
Эх, жили весело славя-не:
  Em Am    G6 H7/F# Em   Am    G6  H7/F#
Землю паха-а-ли,   девок обнима-а-ли,
              Em  Am   G6    H7/F#   Em Am G6 H7/F#
 Эх, никакой беды не жда-ли!

Проигрыш: Em Am G6 H7/F#

                                      Em Am G6 H7/F# Em Am G6 H7/F#
Жда-ли...

Эх, замутили черти воду,
Эх, всё пошло через колоду!
Прёт из болота прямо на ворота,
Эх, вся болотная пехота!

E|--------------------------------------------------------------------------|

H|--------------------------------------------------------------------------|

G|--------------------------------------------------------------------------|

D|--------------------------------2---------------------------------------2-|

A|-7--7--6-6-5-5-4---3-3-2--2-3-2--------7--7-6-6---5-5-4---3---3-2-2-3-2---|

E|--------------------------------------------------------------------------|

  Черти полосаты-е, Леши-е рогаты-е,    Вурдалаки прочи-е, До крови охочи-е  


Проигрыш: Em  Am  G6  H7/F# - 4 раза

Эх, поднимай, славяне, вилы,
Эх, супротив нечистой силы!
Дать каждой твари по мохнатой харе,
Эх, подзатыльником по паре!

  Am                Em          
С нашей Муромской дороги
H7            Em            
Уносите к чёрту ноги,
Am           Em           
А пойдёте напролом,
   H7               H7/A       
В рост пойдёте - огребёте,
H7/G        H7/F#           
Эх, осиновым колом!

Крест, да нательная рубаха,
Хрясь по рогам врагам без страха
Всех на лопатки, наши здесь порядки,
Эх, убегайте без оглядки!

E|--------------------------------------------------------------------------|

H|--------------------------------------------------------------------------|

G|--------------------------------------------------------------------------|

D|--------------------------------2---------------------------------------2-|

A|-7--7--6-6-5-5-4---3-3-2--2-3-2--------7--7-6-6---5-5-4---3---3-2-2-3-2---|

E|--------------------------------------------------------------------------|

                                        Вурдалаки прочи-е, До крови охочи-е  


Проигрыш:

Em  Esus4  Em  Esus2 - 4 раза

             Em  Esus4 Em Esus2 Em  Esus4  Em  Esus2
Ишь, налетели супоста-а-ты...
                       Em Esus4   Em    Esus2 Em  Esus4  Em  Esus2
А хрена вам, а не родные  ха-а-ты!
    Em  Am    G6 H7/F# Em    Am    G6 H7/F#
Брысь от поро-о-га,  скатертью доро-о-га,
Em  Am   G6 H7/F#   Em Am  
Вот, получите закусь на-кось!

    G6  H7/F#
Выкуси!
   Em Am   G6 H7/F#
На-кось выкуси!
Накось выкуси!
Накось!

Примерный вариант боя:

 


 
Последние комментарии

"Песня и исполнение - супер, берет за душу до слез. Играю и пою ее каждый день. Спасибо автору и исполнителю за столь душевную музыку"
 

"Кто автор музыки и слов???"
 

"Понравилась песня."
 

"Здорово. По-моему. лучшее исполнение"
 

"Клаааас!"
Статистика

Онлайн всего: 86
Гостей: 86
Пользователей: 0
Вход на сайт