Accordium Delectus Подборка аккордов
 

Joe Bonamassa: Drive



Вступление:

 Em (2 раза)             Am                      Em     

E|:----------------------:|----------------------------------------------|

H|:----------------------:|----------------------------------------------|

G|:----------------------:|-----4--5------5-7----------------------------|

D|:-----4--5------5-7----:|---7----------------7--------4--5------5-7----|

A|:---7----------------7-:|-7-----------7-------------7----------------7-|

E|:-7-----------7--------:|-------------------------7-----------7--------|

Hm                 Am                             Em                      

E|-----------------------------------------------------------------------|

H|-----------------------------------------------------------------------|

G|-----------------------------------------------------------------------|

D|--------------------10-10-10-10--10-10--7-----4--5------5-7-------7--9-|

A|--------------------------------------------7----------------7----5--7-|

E|-7-7-7--7-7--2-2--------------------------7-----------7----------------|


Em                                                        
Babe, you've been feeling poorly
I've been dealing with stress
Why don't we go out tonight
Put on your favorite dress

           Am
And let's drive
Into the night into the light
    Em
Let's ride
Hm                                          
Put on an old blues song
Am                                               
Let all our troubles be gone
     Em
And drive


Feel like I've been a prisoner
Of my own design
I've been such a bad listener
But I hear you tonight

Let's drive
Into the night into the light
Let's ride

Put on some old blues songs
Let all our troubles be gone
Let's drive, let's drive


Thirty miles from Santa Fe
Bound for San Anton'
Even though it's dark out here
I don't feel alone

Let's drive
Into the night into the light
Let's ride

Put on an old blues song
Let all our troubles be gone
Let's drive

Put on an old blues song
Let all our troubles be gone
Let's drive

Бой на гитаре (примерный вариант):

 


 
Последние комментарии

"тут уже в этой тональности https://youtu.be/dNlDdtJ2i6c"
 

"Скачать"
 

"Песню услышал примерно год назад, но тогда найти автора и исполнителя не удалось. А песня так понравилась, что разослал ролик всем своим друзьям, желая поделиться прекрасным! И вот, слава бобу, песня стала популярной! Браво, Виктория!"
 

"Клас"
 

"Кто авторы?Хочу сделать клип."
Статистика

Онлайн всего: 38
Гостей: 38
Пользователей: 0
Вход на сайт