Accordium Delectus Подборка аккордов Главная Отзывы Заявка на песню Аккорды Табы Новости Видео Статьи FAQ О сайте
А   Б   В   Г   Д   Е   Ё   Ж   З   И   Й   К   Л   М   Н   О   П   Р   С   Т   У   Ф   Х   Ц   Ч   Ш   Щ   Э   Ю   Я
 
A   B   C   D   E   F   G   H   I   J   K   L   M   N   O   P   Q   R   S   T   U   V   W   Y   Z                       0...9
"
Разделы сайта
                   
Настройка гитары
1-я струна E  

2-я струна H  

3-я струна G  

4-я струна D  

5-я струна A  

6-я струна E  
Главная > D > Dassin Joe > Ma Musique

Joe Dassin: Ma Musique



   F                                   C                                     

E|-------1--------1--------1--------1---------------------------------------|

H|-----------------------------------------1--------1--------1--------1-----|

G|---2>3------2>3------2>3------2>3------0---0----0---0----0---0----0---0---|

D|-3--------3--------3--------3--------------------------2------------------|

A|-------------------------------------3--------3-----------------3---------|

E|--------------------------------------------------------------------------|

 

   F                                   C                 G    G/A  G/H        

E|-------1--------1--------1--------1---------------------------------------|

H|-----------------------------------------1--------1--------0--------------|

G|---2>3------2>3------2>3------2>3------0---0----0---0----0------0----0----|

D|-3--------3--------3--------3---------------------------------------------|

A|-------------------------------------3--------3---------------0----2------|

E|-------------------------------------------------------3------------------|

                                                               Ma   mu----

   C                                Am                                       

E|-----0-------0-------0-------0---------0-------0-------0-------0----------|

H|---2---2---2---2---2---2---2---2-----1---1---1---1---1---1---1---1--------|

G|---------0-------0-------0-----------------2-------2-------2--------------|

D|--------------------------------------------------------------------------|

A|-3---------------------------------0--------------------------------------|

E|--------------------------------------------------------------------------|

sique                   c'est  un rire                    Une            

 

    F                                C                                        

E|------1-------1-------1-------1--------0-------0-------0-------0----------|

H|----1---1---1---1---1---1---1---1----1---1---1---1---1---1---1---1--------|

G|----------2-------2-------2----------------0-------0-------0--------------|

D|--------------------------------------------------------------------------|

A|-----------------------------------3--------------------------------------|

E|--1-----------------------------------------------------------------------|

présence,                  une      voix                     Un              

 

   D                                   Am                                    

E|-----2-------2-------2-------2------------5-------5-------5-------5-------|

H|---3---3---3---3---3---3---3---3--------5---5---5---5---5---5---5---5-----|

G|---------2-------2-------2--------------------5-------5-------5-----------|

D|-0------------------------------------------------------------------------|

A|--------------------------------------0-----------------------------------|

E|--------------------------------------------------------------------------|

silence                   qui dit "je t'aime"                   Ma           

 

  Dm                                  C                G      G/A G/H   C     

E|-----5-------5-------5-------5----------0-------0--------3----------------|

H|---6---6---6---6---6---6---6---6------1---1---1---1----0---0------------1-|

G|---------7-------7-------7------------------0------------------0---0------|

D|-0------------------------------------------------------------------------|

A|------------------------------------3------------------------0---2----3---|

E|-----------------------------------------------------3--------------------|

musique                   vient  de  toi                      Ma lu---miêre…


Ma musique, c'est un rire

Une présence, une voix

Un silence qui dit "je t'aime"

Ma musique vient de toi


Ma lumiêre, c'est un geste

Une caresse dans le noir

Qui s'appelle la tendresse

Ma lumière, c'est ton regard


Ma prière, c'est l'absence

D'la colère, et le froid

Dans ma chambre solitaire

Ma prière va vers toi


Проигрыш: F  F  Am  Am  G  G  Am  Am     F  F  C  C  G  G  G7  G7


Ma musique, c'est un rire

Une présence, une voix

Un silence qui dit "je t'aime"

Ma musique vient de toi


Окончание: C  Am  F  C  D  Am  Dm  C G G/A G/H...

Примерный вариант боя:

 
 
Новые добавления
Статистика

Онлайн всего: 73
Гостей: 73
Пользователей: 0

Яндекс.Метрика

Вход на сайт