Accordium Delectus Подборка аккордов
 
Главная > Ё > Ёлка > Прованс

Ёлка: Прованс



Смотреть в тональности Em

Вступление:

  D#m                     B                        H                     G#m                     B              
E|----------------------------------------------------------------------|
H|----------------------------------------------------------------------|
G|----------------------------------------------------------------------|
D|------8--8-----------8--8-----------9--9-----------6--6--------8--8---|
A|-6--6------9--------------8--------------9--------------6-----------8-|
         E|----------------6--6-----------7--7-----------4--4--------6--6--------| - 2 раза

D#m               B             
Уютное кафе
H                        G#m       B    D#m   
На улицах сплетённой мебелью,
                 B
Где красное вино
H                           G#m         B      D#m  
Из местных погребов больших Шато

Ты можешь говорить,
Что это только глупые мечты,
Но в планах у меня
H                            G#m    B   
Всё, видимо, немного кружит

Припев:

       D#m                                        B                        
Ведь завтра в семь двадцать две я буду в Борисполе
     H                       G#m             B              
Сидеть в самолёте и думать о пилоте, чтобы
D#m                               B                         
Он хорошо взлетел и крайне удачно сел
   H                              G#m              B              D#m 
Где-нибудь в Париже, а там ещё немного - и Прованс

Проигрыш=Вступление

Бордовый горизонт,
Бордовое Бордо в бокале
Поверить не могу,
Что это всё уже так близко

Припев.

Проигрыш:

  D#m                     B                        H                     G#m                     B               
E|----------------------------------------------------------------------|
H|----------------------------------------------------------------------|
G|----------------------------------------------------------------------|
D|------8--8-----------8--8-----------9--9-----------6--6--------8--8---|
A|-6--6------9--------------8--------------9--------------6-----------8-|
         E|----------------6--6-----------7--7-----------4--4--------6--6--------| - 4 раза

Припев.

Бой на гитаре (примерный вариант):

 
Последние комментарии

"Во!"
 

"Посмотрела этот мульт с ребёнком, так понравилась песня - начала её искать специально ☺... Жаль что сейчас такие не пишут"
 

""Ласковый май" вернулся"
 

"Безумно красивая композиция"
 

"Текст не соответствует заявленному! Примите меры."
Вход на сайт