Accordium Delectus Подборка аккордов
 
Главная > Ю > Ю-Питер > Чёрная птица, белые крылья

Ю-Питер: Чёрная птица, белые крылья



Вступление (так же можно играть куплет):

E|--------------------------------------------------------------|

H|-8---8-7---7----10---10-8---8----8---8-7---7----10---10-7---7-|

G|---9-----9---------9------9--------9-----9---------9------9---|

D|--------------------------------------------------------------|

A|--------------------------------------------------------------|

E|-0--------------0----------------0--------------0-------------|

 

E|--------------------------------------------------------------|

H|-8---8-7---7----10---10-8---8----8---8-7---7------------------|

G|---9-----9---------9------9--------9-----9---------9------9---|

D|------------------------------------------------10---10-9---9-|

A|-0--------------0---------------------------------------------|

         E|---------------------------------8----------------------------| - 2 раза


Em                                         
Снится чёрная птица мне,
Em                                                    
Бьётся клювом стальным в окно,
Am                                             
И стекло так дрожит во сне,
C                                             
Истекло, видно, время моё...

И бушует гроза во тьме,
Гром хохочет в душе моей,
Хочет вором влететь ко мне,
Обжигаемой молнией...

Припев:

Hm                     Em                
Вниз демоном каменным,
Hm                   Em           
Без лика, без имени
D                          G                
Вверх ангелом пламенным,
 D                    G        D/F#
Незримо, невидимо...

Проигрыш:

E|--------------------------------------------------------------|

H|-8---8-7---7----10---10-8---8----8---8-7---7----10---10-7---7-|

G|---9-----9---------9------9--------9-----9---------9------9---|

D|--------------------------------------------------------------|

A|--------------------------------------------------------------|

E|-0--------------0----------------0--------------0-------------|

 

E|--------------------------------------------------------------|

H|-8---8-7---7----10---10-8---8----8---8-7---7------------------|

G|---9-----9---------9------9--------9-----9---------9------9---|

D|------------------------------------------------10---10-9---9-|

A|-0--------------0---------------------------------------------|

E|---------------------------------8----------------------------|


Как бы жить мне и не дышать,
Как быть, если мне не летать,
Не изведать, не полюбить,
Как теперь жить сейчас и здесь?

Снится чёрная птица мне,
Крылья белые сломаны
Бьётся клювом стальным в окно,
Обожжённая молнией...

Припев.

Окончание:

E|--------------------------------------------------------------|

H|-8---8-7---7----10---10-8---8----8---8-7---7----10---10-7---7-|

G|---9-----9---------9------9--------9-----9---------9------9---|

D|--------------------------------------------------------------|

A|--------------------------------------------------------------|

         E|-0--------------0----------------0--------------0-------------| - 2 раза

Примерный вариант боя:

 
Последние комментарии

"Шикарная песня, не уходит изх репертуара вот уже 2 года"
 

"Просто супер! За душу берет"
 

"Отличная песня..."
 

"Супер"
 

"Душевная песня о трепетном отношении к своей женщине . Благодарю за подбор 😊"
Вход на сайт