Accordium Delectus Подборка аккордов
 
Главная > А > Антонов Юрий > Я иду тебе навстречу

Юрий Антонов - Я иду тебе навстречу Аккорды и текст песни



Вступление:

     Am         Em                D  C           Em  

E|---12---------------------------10----12----------|

H|--------------------------10-12-------------------|

G|-9-------12-11-9----9-12------------------12-11-9-|

D|--------------------------------------------------|

A|--------------------------------------------------|

         E|--------------------------------------------------| - 2 раза


Em                           Am                     
Я иду тебе навстречу росными лугами, 
 C                                 H7            Em  
Радость падает на плечи жёлтыми ветрами
 Am                                 Em                        
Знаю, ждёшь меня ты где-то у любви во власти, 
         H7                            Em               
Посреди цветов и лета, посреди несчастья 
Знаю, ждёшь меня ты где-то у любви во власти, 
Посреди цветов и лета, посреди несчастья 
 
Я иду тебе навстречу по лесистым тропам, 
Зажигает листья-свечи золотистый тополь
Он так ярко зеленеет и звенит листвою, 
Чтобы встретиться скорее нам пришлось с тобою
Он так ярко зеленеет и звенит листвою, 
Чтобы встретиться скорее нам пришлось с тобою

Проигрыш:

     Am         Em                D  C           Em  

E|---12---------------------------10----12----------|

H|--------------------------10-12-------------------|

G|-9-------12-11-9----9-12------------------12-11-9-|

D|--------------------------------------------------|

A|--------------------------------------------------|

E|--------------------------------------------------|

 
Я иду тебе навстречу по траве звенящей, 
Подарю тебе я вечер самый настоящий,
Чтобы звёзды в нем сверкали и глаза искрились, 
Чтобы мы с тобой мечтали, а мечты все сбылись 
Чтобы звёзды в нем сверкали и глаза искрились, 
Чтобы мы с тобой мечтали, а мечты все сбылись

Окончание:

     Am         Em                D  C           Em  

E|---12---------------------------10----12----------|

H|--------------------------10-12-------------------|

G|-9-------12-11-9----9-12------------------12-11-9-|

D|--------------------------------------------------|

A|--------------------------------------------------|

   E|--------------------------------------------------|...

Примерный вариант боя:

 
Последние комментарии

"Прекрасная песня. Легкая музыка. Очень понятная на слух. Красивая мелодия. Приятный голос исполнителя."
 

"здорово!звучит правдо-подобно"
 

"очаровательная трогательная песня"
 

"А кто автор стихов, кто автор музыки???"
 

"Спасибо! Побольше бы таких мудрых, трогательных и красивых песен!"
Статистика

Онлайн всего: 119
Гостей: 119
Пользователей: 0
Вход на сайт