Accordium Delectus Подборка аккордов
 
Главная > А > Антонов Юрий > Я тебя не забуду

Юрий Антонов: Я тебя не забуду




Вступление (примерный вариант):

E|-1-----3-1-------1---1-1-0-----0-1-------0-1-0---------------------|

H|---1---------3-1---1-------1-2-------3---1-----1-3---------3-1-----|

G|-----2-----2-----------------0-----2---2-----------2~3~2-------0---|

D|-3-------0-----------------------0-----------------------3-------2-|

A|-------------------------3---4-----------0-------1---------3-------|

E|-----------------3-------------------------------------------------|

Два раза

E|:-1---3---1-------1---1---0-------1---3---1-------1---1---0-----5--|

H|:---1---1-----3-1-------3-----1-----1---1-----3-1-------3---2-5----|

G|:-----------2-------3-------0---3-----------2-------3--------------|

D|:-3---2---0-----------------------3---2---0------------------------|

A|:-------------------------3-------------------------------0--------|

E|:-----------------3-------------------------------3----------------|

                                                    Окончание первый раз

E|-1-------1---------------3-----------------------:|-----------------:|

H|-----3-------3-------3-----3---------3-------1---:|-----1-------1---:|

G|---2---2---2---2---4---4-----4-0---3---3---0---0-:|---2---2---0---0-:|

D|-0-----------------------------------------------:|-3---------------:|

A|---------3-------2---------------1-------3-------:|---------3-------:|

E|-------------------------------------------------:|----------------:-|

                                                Окончание второй раз

                                                E|:---------1---------:|

                                                H|:-----1-----1-------:|

                                                G|:---2---2-----1~2---:|

                                                D|:-3---------------3-:|

                                                A|:-------------------:|

                                                E|:-------------------:|


            F       Gm7         C               F
По планете немало постранствовал я,
       F           Gm7          C            F   
Уходил в никуда, приходил ниоткуда
                F              Gm7           C         F  
Ты - мой посох в судьбе, ты - дорога моя,
C/E  Dm       Gm7        C           F      
Я тебя никогда и нигде не забуду!

Ты - мой посох в судьбе, ты - дорога моя,
Я тебя никогда и нигде не забуду!


Все, кого я встречал, оставались в душе,
Кто на несколько лет, кто всего на минуту
Ты была в моём сердце с рожденья уже,
Я тебя никогда и нигде не забуду!

Ты была в моём сердце с рожденья уже,
Я тебя никогда и нигде не забуду!

Проигрыш:

Два раза

E|-1-----3-1-------1---1-1-0-----0-1-------0-1-0---------------------|

H|---1---------3-1---1-------1-2-------3---1-----1-3---------3-1-----|

G|-----2-----2-----------------0-----2---2-----------2~3~2-------0---|

D|-3-----2-0-----------------------0-----------------------3-------2-|

A|-------------------------3---4-----------0-------1---------3-------|

E|-----------------3-------------------------------------------------|


Много раз улыбались красавицы мне,
Были эти улыбки похожи на чудо,
Но в глазах твоих я утону по весне,
Я тебя никогда и нигде не забуду!

Но в глазах твоих я утону по весне,
  C/E  Dm        Gm7        C          F       D
Я тебя никогда и нигде не забуду!

Переход на 1 тон выше (Em)

Проигрыш:

Два раза

E|:-------------3---0---3---2-------------------3-------3---2---0-2-|

H|:-0---1---3-----3---1---1-----3---0-------------0-1-----1---0-----|

G|:---0---0---0---------------2---2---0-2---0---------2-------------|

D|:---------------------2---0-------------0---2---------------------|

A|:-----0---2-------3-------------------------------0-------2-------|

E|:-3-------------------------------3---2---0-------------------2---|


E|-3-------3---------------5-----------5---2-----2---------2-------:|

H|-----0-------0-------5-----5---5-------5-----3-------0-------3---:|

G|---0---0---0---0---6---6-----6-----5-------2-------0---0---2---2-:|

D|-2-------0-------------------------------0---------------0-------:|

A|-----------------4---------------3-------------------------------:|

E|-------------------------------------------------3---------------:|


              G             C               D          G   
Спел я множество песен в кругу земляков,
              G            C            D           G   
Слышал песни, подобные древнему гуду
            G            C           D          G   
Только ты будто лучшая песня веков,
D/F# Em       Am7        D          G        
Я тебя никогда и нигде не забуду!

Только ты будто лучшая песня веков,
Я тебя никогда и нигде не забуду!

Окончание:

E|-----3-------0---2--------3----6>7-|

H|-------0-------1-----3----0----7>8-|

G|---0-------0-------2---2--0----6>7-|

D|-----------------0--------0--------|

A|---------3----------------2--------|

E|-3------------------------3--------|

 


 
Последние комментарии

"... а вот в исполнениииавтора песни пол века назад... https://zaycev.net/artist/115135?spa=true&trackId..."
 

"Шедевр!!!"
 

"Нето фуфло паешь Врешь сука."
 

"С третьего аккорда начинается неправильные аккорды вы сами играете или переписываете у других?"
 

"Кто подскажет где скачать минусовку? Буду очень благодарен. Песня отличная."
Статистика

Онлайн всего: 36
Гостей: 35
Пользователей: 1
Justas
Вход на сайт