Accordium Delectus Подборка аккордов
 
Главная > Ч > Черкашин Юрий > Я вернулся домой

Юрий Черкашин: Я вернулся домой

   

E|--------------------------------------------------------------------------|

H|-----3--------3--------3--------3--------3--------3--------3--------3-----|

G|---0---0----0---0----0---0----0---0----0---0----0---0----0---0----0---0---|

D|--------------------------------------------------------------------------|

A|--------------------------------------------------------------------------|

E|-3--------2--------0--------2--------3--------2--------0--------2---------|

 

E|--------------------------------------------------------------------------|

H|------3--------3--------3--------3--------3--------3--------3--------3----|

G|----0---0----0---0----0---0----0---0----0---0----0---0----0---0----0---0--|

D|--------------------------------------------------------------------------|

A|--------------------------------------------------------------------------|

E|--3--------2--------0--------2--------3--------2--------0--------2--------|

Вчерашний бокал    вина            Не тронутым      простоял                 

 

E|--------------------------------------------------------------------------|

H|-----3--------3--------1--------0--------3--------3--------3--------3-----|

G|---0---0----0---0----0---0----0---0----0---0----0---0----0---0----0---0---|

D|--------------------------------------------------------------------------|

A|-3--------2--------0--------3---------------------------------------------|

E|-------------------------------------3--------2--------0--------2---------|

 А утром пришла  весна,    я её  встречал                                    

  

Словно с горных вершин

Скатились осколки льда

  Треснул старый кувшин

E|--------------------------------------------------------------------------|

H|-----0--------3--------3--------3-----------------------------------------|

G|---0---0----0---0----0---0----0-------0---0-------------------------------|

D|--------------------------------------------------------------------------|

A|-3------------------------------------------------------------------------|

E|----------3--------2--------1-----1-1---0---------------------------------|

… в нём замёрзла вода                                                                        

 

Припев:

 

E|-----7--------7--------7--------0--------3----3---3-----------------------|

H|--------------------------------0----------------------1---1--------------|

G|---0---0----0---0----0---0----0---0----0---0----0---0----0---0----0---0---|

D|--------------------------------------------------------------------------|

A|-7--------6--------5--------4--------3--------2--------0--------3---4-----|

E|--------------------------------------------------------------------------|

   И где-то там,          далеко,  проснулись  звери и  птицы,                 

 

E|-----7--------7--------7--------0--------3----3---3-------------2---3-----|

H|--------------------------------0----------------------1---1--------------|

G|---0---0----0---0----0---0----0---0----0---0----0---0----0---0----2---2---|

D|----------------------------------------------------------------0---------|

A|-7--------6--------5--------4--------3--------2--------0------------------|

E|--------------------------------------------------------------------------|

 И стало вдруг так светло,  открылись лица,   открылись лица,               

 

E|--------------------------------------------------------------------------|

H|-----3--------3--------3--------3--------3--------3--------3--------3-----|

G|---0---0----0---0----0---0----0---0----0---0----0---0----0---0----0---0---|

D|--------------------------------------------------------------------------|

A|--------------------------------------------------------------------------|

E|-3--------2--------0--------2--------3--------2--------0--------2---------|

          открылись лица                                                    

 

И заискрились глаза,

Вспыхнул погасший костёр

Слышу друзей голоса,

Это старый наш двор

 

E|--------------------------------------------------------------------------|

H|-----3--------3--------1--------1--------0--------0--------3--------3-----|

G|---0---0----0---0----0---0----0---0----0---0----0---0----0---0----0---0---|

D|--------------------------------------------------------------------------|

A|-3--------2--------0--------0--------3--------3---------------------------|

E|-------------------------------------------------------3--------2---------|

 В дымке костра образ твой...              Я вернулся  домой!                  

 

E|--------------------------------------------------------------------------|

H|-----3--------3--------3--------3--------3--------3----3------------------|

G|---0---0----0---0----0---0----0---0----0---0----0---0--0------------------|

D|-------------------------------------------------------0------------------|

A|--------------------------------------------------------------------------|

E|-0--------2--------3--------2--------0--------2--------3------------------|

      Я вернулся  домой!                    Вернулся  домой!                 


 
Последние комментарии

"Здорово конечно! Спасибо! А можно в Am перевести?"
 

"Благодарю за правильные аккорды! Низкий поклон автору песни."
 

"Красивая, но забытая песня."
 

"хороший подбор"
 

"Молодец! Не надо забывать чувство любви, оно движет Миром!!!!"
Статистика

Онлайн всего: 22
Гостей: 22
Пользователей: 0
Вход на сайт