Accordium Delectus Подборка аккордов
 
Главная > К > Кино > Бошетунмай/span>

Виктор Цой и группа Кино: Бошетунмай


Вступление - 2 раза:


               A      A/H       F#m     F#m/D        A    A/H     F#m       A      A/H       F#m     F#m/D        A    A/H     F#m                      

E|--------------------------------------------------------------------------|

H|--------------------------------------------------------------------------|

G|--------------------------------------------------------------------------|

D|-----------------0------------------2---------------0------------4--------|

A|-0---0-2--0-4--0----0-4--0-2--------0---0-2--0-4--0----0-4--0-2-----------|

E|------------------------------2-------------------------------------------|



A                                                 F#m
Тот, кто в пятнадцать лет убежал из дома,
  A                                                    F#m
Вряд ли поймёт того, кто учился в спецшколе
  A                                                    F#m
Тот, у кого есть хороший, жизненный план,
   A                                           F#m
Вряд ли будет думать о чём-то другом

Проигрыш:


     

             A      A/H       F#m     F#m/D        A    A/H     F#m                      

E|--------------------------------------------------------------------------|

H|--------------------------------------------------------------------------|

G|--------------------------------------------------------------------------|

D|-----------------0------------------2---------------0------------4--------|

A|-0---0-2--0-4--0----0-4--0-2--------0---0-2--0-4--0----0-4--0-2-----------|

E|------------------------------2-------------------------------------------|



Мы пьём чай в старых квартирах,
Ждём лета в старых квартирах

В старых квартирах, где есть свет,
Газ, телефон, горячая вода
Радиоточка, пол - паркет,
Санузел раздельный, дом кирпичный

Одна семья, две семьи, три семьи,
Много подсобных помещений
Первый и последний - не предлагать,
Рядом с метро, центр...

Проигрыш.

Все говорят, что мы вместе,
Все говорят, но немногие знают, в каком
А из наших труб идет необычный дым,
Стой, опасная зона, работа мозга!

Припев:

A                     F#m
М-м-м, Бошетунмай,
A                    F#m
М-м-м, Бошетунмай
A                     F#m
М-м-м, Бошетунмай,
A                    F#m
М-м-м, Бошетунмай

М-м-м, Бошетунмай,
М-м-м, Бошетунмай
М-м-м, Бошетунмай,
М-м-м, Бошетунмай

Окончание:

A      A/H       F#m     F#m/D        A    A/H     F#m                       

E|--------------------------------------------------------------------------|

H|--------------------------------------------------------------------------|

G|--------------------------------------------------------------------------|

D|-----------------0------------------2---------------0------------4--------|

A|-0---0-2--0-4--0----0-4--0-2--------0---0-2--0-4--0----0-4--0-2-----------|

E|------------------------------2-------------------------------------------|

 


 
Последние комментарии

"Прямо ностальгия!!!"
 

"Мой отец-участник ВОВ. Мать всю войну трудилась на тяжелых работах."
 

"Десантник - это не профессия, это НАЦИОНАЛЬНОСТЬ. Слава ВДВ!"
 

"Очень понравилась песня!!!! 👍
 

"Виктор Кто автор слов и музыки???"
Статистика

Онлайн всего: 71
Гостей: 70
Пользователей: 1
luzerbend
Вход на сайт