Accordium Delectus Подборка аккордов
 
Главная > К > Кино > Звезда по имени Солнце

Виктор Цой и группа Кино: Звезда по имени Солнце

   

Вступление:

  Dm7                                              Am                               

E|-5--5-5-5--8-5--5-5-5--8-5--5-5-5--8-5--5-5-5--8--5-5-5--5-5-5-5--5-5-5--5-5-5-5-|

H|-6--6-6-6--6-6--6-6-6--6-6--6-6-6--6-6--6-6-6--6--5-5-5--5-5-5-5--5-5-5--5-5-5-5-|

G|-5--5-5-5--5-5--5-5-5--5-5--5-5-5--5-5--5-5-5--5--5-5-5--5-5-5-5--5-5-5--5-5-5-5-|

D|-7--7-7-7--7-7--7-7-7--7-7--7-7-7--7-7--7-7-7--7--7-7-7--7-7-7-7--7-7-7--7-7-7-7-|

A|-5--5-5-5--5-5--5-5-5--5-5--5-5-5--5-5--5-5-5--5--7-7-7--7-7-7-7--7-7-7--7-7-7-7-|

E|--------------------------------------------------5-5-5--5-5-5-5--5-5-5--5-5-5-5-|

   ^  ^ v ^  v ^  ^ v ^  v ^  ^ v ^  v ^  ^ v ^  v  ^ v ^  v ^ v ^ vv ^ v ^  


            Am                  
Белый снег, серый лёд
             C                         
На растрескавшейся земле
     Dm                               
Одеялом лоскутным на ней
 G                               
Город в дорожной петле

А над городом плывут облака,
Закрывая небесный свет
А над городом жёлтый дым -
Городу две тысячи лет,
  Dm                                                  Am      
Прожитых под светом звезды, по имени Солнце

   Проигрыш:

  Dm7                                            

E|-5--5-5-5--8-5--5-5-5--8-5--5-5-5--8-5--5-5-5-|

H|-6--6-6-6--6-6--6-6-6--6-6--6-6-6--6-6--6-6-6-|

G|-5--5-5-5--5-5--5-5-5--5-5--5-5-5--5-5--5-5-5-|

D|-7--7-7-7--7-7--7-7-7--7-7--7-7-7--7-7--7-7-7-|

A|-5--5-5-5--5-5--5-5-5--5-5--5-5-5--5-5--5-5-5-|

E|----------------------------------------------|

   ^  ^ vv ^  ^ vv ^  ^ vv ^  ^ v ^  


И две тысячи лет война,
Война без особых причин,
Война - дело молодых,
Лекарство против морщин

Красная-красная кровь,
Через час уже просто земля,
Через два на ней цветы и трава,
Через три она снова жива
И согрета лучами звезды, по имени Солнце

   Проигрыш: Dm  Dm  Am  Am - 2 раза

И мы знаем, что так было всегда,
Что судьбою больше любим,
Кто живёт по законам другим,
И кому умирать молодым

Он не помнит слова "да" и слова "нет",
Он не помнит ни чинов, ни имён
И способен дотянуться до звёзд,
Не считая, что это сон,
   И упасть опалённым звездой, по имени Солнце...

   Окончание: Dm  Dm  Am  Am...

Примерный вариант боя:

 


 
Последние комментарии

"Очень понравилась песня!!!! 👍
 

"Виктор Кто автор слов и музыки???"
 

"С праздником!"
 

"Песня СУПЕР!!!!"
 

"У меня есть поэтический перевод данной песни и ещё нескольких вещей Песняров. Можно прочитать в творческой группе ВК и на Стихи.ру (легко находится через поисковик)"
Статистика

Онлайн всего: 101
Гостей: 101
Пользователей: 0
Вход на сайт