Accordium Delectus Подборка аккордов
 
Главная > К > КняZz > Русалки

КняZz: Русалки



Вступление (примерный вариант перебора):

  Am        Fmaj7     Dsus2-Dm-Dsus4-Dm-Dsus2-Dm  

E|-----0----------0----------0-1-3-1-0-1--------|

H|-----1----------1----------3-3-3-3-3-3--------|

G|---2---2------2---2------2--------------------|

D|------------3----------0----------------------|

A|-0--------------------------------------------|

         E|----------------------------------------------| - 3 раза

 

  Am        Fmaj7       Dm                        

E|-----0----------0------1----------------------|

H|-----1----------1------3----------------------|

G|---2---2------2---2----2----------------------|

D|------------3----------0----------------------|

A|-0--------------------------------------------|

E|----------------------------------------------|



Am            Fmaj7         Dm        
Звонко плещется водица
                                                                 E           Am           Fmaj7 Dsus2-Dm-Dsus4-Dm-Dsus2-Dm 
В тихой заводи реки лесной
Am          Fmaj7            Dm       
Там резвятся две девицы
                                                                 E                   Am           Fmaj7 Dsus2-Dm-Dsus4-Dm-Dsus2-Dm 
Тёмной ночью под большой луной

C            C/H            Am          
А я пришёл воды напиться,
     Dm            E              Am     Am7/G
Тихо к заводи подкрался
F          G                    Em    Am   
Подходить к ней не реши-ился,
Dm          E          Am  Em  Am   
Жив поэтому оста - ал-ся

Проигрыш:

  Am        Fmaj7     Dsus2-Dm-Dsus4-Dm-Dsus2-Dm  

E|-----0----------0----------0-1-3-1-0-1--------|

H|-----1----------1----------3-3-3-3-3-3--------|

G|---2---2------2---2------2--------------------|

D|------------3----------0----------------------|

A|-0--------------------------------------------|

         E|----------------------------------------------| - 4 раза


В каждом взгляде есть загадка,
Вьются волосы зелёные
Губы что-то шепчут сладко,
Но на вкус они солёные

Они хитрые и быстрые,
Для парней они опасные
Снизу рыбы серебрис-ты-е,
Сверху девушки прекра-сны-е...

Проигрыш=Вступление

Окончание:

Am  F  Dm  E - 10 раз Am

Примерный вариант боя:

 


 
Последние комментарии

"Очень понравилась песня!!!! 👍
 

"Виктор Кто автор слов и музыки???"
 

"С праздником!"
 

"Песня СУПЕР!!!!"
 

"У меня есть поэтический перевод данной песни и ещё нескольких вещей Песняров. Можно прочитать в творческой группе ВК и на Стихи.ру (легко находится через поисковик)"
Статистика

Онлайн всего: 95
Гостей: 95
Пользователей: 0
Вход на сайт