Accordium Delectus Подборка аккордов
 

Комиссар: Дрянь


Вступление:


Am         F          G         Em         Am   

E|--------------------------------------------|

H|-5-5--------------5-------------------5-----|

G|-----7-5-5--5-5-7---7--7-7-5-4-4--4-4---4-5-|

D|--------------------------------------------|

A|--------------------------------------------|

E|--------------------------------------------|

Am         F         Dm          E         Am   

E|--------------------------------------------|

H|-5-5----------------------------------------|

G|-----7-5-5--5-5-4------7-7-5-4-4--7-7-5-4---|

D|------------------7-7---------------------7-|

A|--------------------------------------------|

E|--------------------------------------------|

 

  Am            Dm            Am            Dm      

E|--------------------------------------------------|

H|--------------------------------------------------|

G|--------------------------------------------------|

D|---------------7--5-7----7-7---------------7--5-7-|

A|-7--7-7----7-7-5--3-5----5-5-7--7-7----7-7-5--3-5-|

E|-5--5-5----5-5---------------5--5-5----5-5--------|

 

Am                  Dm                  Am                 Dm                

E|---------------------------------------------------------------------------|

H|---------------------------------------------------------------------------|

G|---------------------------------------------------------------------------|

D|---------------------7-7--7-7--7--5-7------------------------7-7--7-7--4-5-|

A|-7-7--7-7--7--5-7----5-5--5-5--5--3-5----7-7--7-7--7--5-7----5-5--5-5--2-3-|

E|-5-5--5-5--5--3-5------------------------5-5--5-5--5--3-5------------------|


Am                                                       Dm     
Ну здравствуй, как жизнь, как дела твои?
E                                            F    E
Как ты изменилась в глазах моих!
Am                                         Dm       
Я тоже, как видишь, уже другой,
E                                                   F   E
   Но только, как ты, не дружу с травой...

Припев:

Am                       F                     G      
А помнишь наш вечер, и белый снег
                   Em               Am 
Ложился на плечи тебе и мне?
                       F                       Dm
   Шёл первый и тёплый снег декабря...
                   E                  Am    
Тогда я не знал, какая ты дрянь!

Проигрыш


Слезами закапает тушь в бокал,
Напрасно я всё же тебя искал!
Напрасно пытался вернуть назад,
И тонет в дыму безразличный взгляд...

Припев:

А помнишь наш вечер, и белый снег
Ложился на плечи тебе и мне?
Шёл первый и тёплый снег декабря...
Тогда я не знал, какая ты дрянь!

А помнишь наш вечер и белый снег,
Когда поцелуй подарила мне?
Казалось, что любишь ты в первый раз,
А снег на земле превращался в грязь...

Проигрыш=Вступление

Скользит по клиентам туманный взгляд,
И дым сигарет источает яд
Ну что ж, оставайся, а я пойду,
Мне не отвести от тебя беду

Припев:

А помнишь наш вечер, и белый снег
Ложился на плечи тебе и мне?
Шёл первый и тёплый снег декабря...
Тогда я не знал, какая ты дрянь!

А помнишь наш вечер и белый снег,
Когда поцелуй подарила мне?
Казалось, что любишь ты в первый раз,
А снег на земле превращался в грязь...

 


 
Последние комментарии

"Мой отец-участник ВОВ. Мать всю войну трудилась на тяжелых работах."
 

"Десантник - это не профессия, это НАЦИОНАЛЬНОСТЬ. Слава ВДВ!"
 

"Очень понравилась песня!!!! 👍
 

"Виктор Кто автор слов и музыки???"
 

"С праздником!"
Статистика

Онлайн всего: 99
Гостей: 99
Пользователей: 0
Вход на сайт