Accordium Delectus Подборка аккордов
 
Главная > К > Куклин Константин > Аромат любимой

Константин Куклин: Аромат любимой

(на стихи Виктории Дашковой)
 


В оригинале на пол-тона выше (Fm).

Можно проиграть этими же аккордами, поставив каподастр на 1-ом ладу

Вступление: 

E|-------------------------------------------------------------------|
H|-------0------0---1-----0-----0----------0---------1-----0---------|
G|-----0--------------0------------------0---0---0-----0-----0---0---|
D|---0--------0---0-----0-----0---0----4-------4---4-----4-----4---4-|
A|-------------------------------------------------------------------|
E|-3---------------------------------0-------------------------------|

E|-----------------------------------------0---------3-----2-----3-3-|
H|-------1-----------3-----1-------1-----3---3---3-----3-----3---3-3-|
G|-----0---0-------0---0-----0---0-----2-------2---2-----2-----2-2-2-|
D|---0-------0-0>2-------2-----2-----0---------------------0-----0-0-|
A|-3-----------------------------------------------------------------|
E|-------------------------------------------------------------------|

G           H7                                Em      C 
Ты вся благоухаешь снежным лесом,
       G                     H7            Em   
Цейлонским чаем крупнолистовым,
  C                        D                 G       Em 
Неутомимым детским интересом
      C                 D              G   
И трепетным желанием живым!

Ты источаешь умиротворение
И хрусткий, свежий аромат газет,
А лёгкий шлейф айвового варенья
Изысканно вплетается в букет

Проигрыш=Вступление

Ты пахнешь лаком новенькой гитары,
И терпкой кожей чёрного ремня,
И небом тем, чьи тучные отары
Плывут напиться солнечного дня

И росами, в которых жизни коды,
И летней пряной, скошенной травой,
И таинством божественной природы,
И очень-очень нежно пахнешь мной!


Ты вся благоухаешь снежным лесом,
Цейлонским чаем крупнолистовым,
/Неутомимым детским интересом
И трепетным желанием живым!/ - 2 раза

Окончание:

E|-------------------------------------------------------------------|
H|-------0------0---1-----0-----0----------0---------1-----0---------|
G|-----0--------------0------------------0---0---0-----0-----0---0---|
D|---0--------0---0-----0-----0---0----4-------4---4-----4-----4---4-|
A|-------------------------------------------------------------------|
E|-3---------------------------------0-------------------------------|

E|-------------------------2~3-3>5-3~5~3---3-------------------------|
H|-------1-------------3-------------------0-------------------------|
G|-----0---0---0-----2---2-----------------0-------------------------|
D|---0-------0---0-0-----------------------0-------------------------|
A|-3---------------------------------------2-------------------------|
E|-----------------------------------------3-------------------------|
   
Последние комментарии

"Перепели качественно! Молодцы!"
 

"Монгол шуудан круче исполнил"
 

"Перебор Пожалуйста"
 

"Класс"
 

"Да где же такой город Саха,кто мне расскажет?Про республику Арцах не слышали,не?На помощь мирным людям гор Арцаха!"
Статистика

Онлайн всего: 85
Гостей: 85
Пользователей: 0
Вход на сайт