Accordium Delectus Подборка аккордов
 
"
Главная > К > Куклин Константин > Вечер у камина

Константин Куклин: Вечер у камина

(на стихи Елены Журавлёвой-Подольской)
 


Вступление:

  Gm     Bmaj7   D#maj7   B/D     Cm7      B       D7     Gm          
E|-------6>5-----5-------3-------1---------------------------------3-|
H|-----3-------3-------3-------3---------4-------3-------3-----3-----|
G|---3-------3-------3-------3---------3-------3-------5-----3---3---|
D|-5-------3-------1-------0---------5-------3-------4---------------|
A|---------------------------------3-------1-------5-----------------|
E|---------------------------------------------------------3---------|

                   Gm                     Gm+7                Gm7     Gm6
Не спросив разрешения у лета, нагрянула осень
            D#maj7                     D7                        Gm  D7
С холодами, дождями, пожухлою, рыжей травой
          Gm                  Gm+7                  Gm7     Gm6
Неуютна за окнами ночи холодная проседь,
                   D#maj7                       D7                         Gm  Gm/B
Стылый ветер с дождём хороводит опавшей листвой

Припев:

         D#                            F                           B     
Мы затопим камин, не поддавшись тоске непогоды,
            D#                       F                      B    G7
Лёгким запахом дыма и хвои наполнится до-о-ом,
      Cm7                        D7                       D#   
Остановится время, замрут быстротечные годы,
         Cm                         D7                         Gm
Проведём этот вечер волшебный с тобою вдвоём

Мы затопим камин, не поддавшись тоске непогоды,
Лёгким запахом дыма и хвои наполнится дом,
Остановится время, замрут быстротечные годы,
              Cm                         D7                         Gm  D7
Проведём этот вечер волшебный с тобою вдвоём

Проигрыш:

  Gm     Bmaj7   D#maj7   B/D     Cm7      B       D7         
E|-6-------5-------------3-------1---------------------------|
H|---3---3---3---3-----3-------3---------4-------3---------3-|
G|-----3-------3-----3-------3---------3-------3-------5-----|
D|-5-------3-------1-------0---------5-------3-------4---4---|
A|---------------------------------3-------1-------5---------|
E|-----------------------------------------------------------|

В ярких бликах огня заискрится в хрустальных бокалах
Молодое вино, но пьяны мы уже от любви
Вечер тает свечой и таинственно, мягко стекает
В ночь, которую даже представить себе не могли

Припев - 2 раза:

Тлеют угли в камине теплом уходящего жара,
И виденьями бродят по дому счастливые сны
В тишине лишь мурлычет, прищурив глаза, величаво
                      Cm                    D7                             Gm  Gm/B
Старый кот в ожидании солнечной, тёплой весны

Повтор 1-го куплета.

Припев:

Мы затопим камин, не поддавшись тоске непогоды,
Лёгким запахом дыма и хвои наполнится дом,
Остановится время, замрут быстротечные годы,
          Cm                         D7                         Gm 
              /Проведём этот вечер волшебный с тобою вдвоём/ - 2 раза

Окончание:

  Gm     Bmaj7   D#maj7   B/D     Cm7      D7       Gm  
E|-6-------5-------3-------------1-------------------3-|
H|---3---3---3---3---3---3-----3---------4-----------3-|
G|-----3-------3-------3-----3---------3-------5-----3-|
D|-5-------3-------1-------0---------5-------4---4---5-|
A|---------------------------------3-------5---------5-|
E|---------------------------------------------------3-|
 
Поделись с друзьями:
 
 
Последние комментарии
Игорь Бурдин «Ассоциация: Я - деревня

"Ностальджи. е-е"
 

"отлично!"
 

"Супер!"
 

"Пробрало до соплей!!!!"
 

"Хорошо! Как в лаванду окунулся!"
Настройка гитары
1-ая струна E (ми)  

2-ая струна H (си)  

3-я струна G (соль) 

4-ая струна D (ре) 

5-ая струна A (ля) 

6-ая струна E (ми) 
Статистика

Онлайн всего: 77
Гостей: 77
Пользователей: 0
Вход на сайт