Accordium Delectus Подборка аккордов
 

Константин Никольский (Воскресение): Голос



Вступление (примерный вариант перебора):

 Dsus2     бой    Cadd9  C бой     Am      бой    Em7-5     C        

E|------------0-----0---------0---------------0---------0-------0---|

H|-----3----3---3-------3-1-1---1---------1-1---1---3-------1-----1-|

G|---2---2--2-----2---0-----0-----0-----2---2-----2---0---0---0-----|

D|-0--------0---------------2---------2-----2-----------------------|

A|------------------3-------3-------0-------0-------1-------3-------|

E|------------------------------------------------------------------|

  Dm        Dsus2 Cadd9  C бой     Am      бой    Em7-5     C         

E|----------1~0-----0---------0---------------0---------0-------0---|

H|-----3--------3-------3-1-1---1---------1-1---1---3-------1-----1-|

G|---2---2--------2---0-----0-----0-----2---2-----2---0---0---0-----|

D|-0------------------------2---------2-----2-----------------------|

A|------------------3-------3-------0-------0-------1-------3-------|

E|------------------------------------------------------------------|


Dm                                           Gm/E              A7           
Я не хочу, чтоб кто-нибудь приник к моей печали...
Dm            B-5              Gm          A7      
Уйди, сегодня мне не надо никого:
Gm           Gm7                      C                F          
И ни шагов, которые б знакомо прозвучали,
         D#           B        Gm         A7
Ни взгляда, дорогого взгляда твоего

Dm                                          Gm6                A7           
Оставь меня и дверь мою плотней прикрой сегодня,
Dm              B-5         Gm               A7     
И ветру свежему ни открывай окна
Gm                        Gm7        C               F             
Сегодня как-то всё грустней и безысходней
D#               B        Gm A7      Dm     
Душе, которая уныла  и темна

Проигрыш:

  Dm        Dsus2 Cadd9  C бой     Am      бой    Em7-5     C         

E|----------1~0-----0---------0---------------0---------0-------0---|

H|-----3--------3-------3-1-1---1---------1-1---1---3-------1-----1-|

G|---2---2--------2---0-----0-----0-----2---2-----2---0---0---0-----|

D|-0------------------------2---------2-----2-----------------------|

A|------------------3-------3-------0-------0-------1-------3-------|

E|------------------------------------------------------------------|


Моя печаль ко мне издалека приникнуть хочет,
Её не знаю я, но к каждому из нас,
Кто весело поёт, кто плачет иль хохочет,
Она приходит тихо в свой урочный час

Когда встаёт в душе так много жалоб и сомнений,
И что-то плачет, а она издалека твердит
Унылым голосом, что жизни цвет весенний
Даёт плоды, в которых пепел и тоска

Окончание:

  Dm        Dsus2 Cadd9 C  бой     Am      бой    Em7-5   Cadd9       

E|----------1~0---------------0---------------0---------0-------0---|

H|-----3--------3---3---1-1-1---1---------1-1---1---3-------3-----3-|

G|---2---2--------2---0-----0-----0-----2---2-----2---0---0---0-----|

D|-0------------------------2---------2-----2-----------------------|

A|------------------3-------3-------0-------0-------1-------3-------|

E|------------------------------------------------------------------|

Dsus2    Dm     Cadd9     C      Am      бой    Em7-5   Cadd9      

E|-------0~1~0-----------0-----0-------------0---------0-------0----|

H|-----3-------3-------3---1-----1-------1-1---1---3-------3-----3--|

G|---2-----------2---0-------0---------2---2-----2---0---0---0------|

D|-0---------------------------------2-----2------------------------|

A|-----------------3---------------0-------0-------1-------3--------|

E|------------------------------------------------------------------|

   Dm        

E|------10-|

H|---------|

G|---10----|

D|-0-------|

A|---------|

E|---------|

 


 
Последние комментарии

"затронуло за живое спасибо Аркаша!"
 

"Что-то ,как-то не очень воспроизводится песенка! Может технический брак?"
 

"Прекрасное исполнение."
 

"Си бемоль начало и так далее! валенки"
 

"Что вы за подборщик вам медведь насухо наступил там другие окорды в оригинале в исполнении Муслима магомаева"
Статистика

Онлайн всего: 163
Гостей: 163
Пользователей: 0
Вход на сайт