Accordium Delectus Подборка аккордов Главная Отзывы Заявка на песню Аккорды Табы Новости Видео Статьи FAQ О сайте
А   Б   В   Г   Д   Е   Ё   Ж   З   И   Й   К   Л   М   Н   О   П   Р   С   Т   У   Ф   Х   Ц   Ч   Ш   Щ   Э   Ю   Я
 
A   B   C   D   E   F   G   H   I   J   K   L   M   N   O   P   Q   R   S   T   U   V   W   Y   Z                       0...9
"
Разделы сайта
                   
Настройка гитары
1-я струна E  

2-я струна H  

3-я струна G  

4-я струна D  

5-я струна A  

6-я струна E  
Главная > К > Крематорий > Безобразная Эльза

Крематорий: Безобразная Эльза



Вступление:
               D                                              A         D   
E|-12~14-12----14--14---12~14-12----14---12~14-12----14--14---12--14-12----|
H|----------15-------------------15---------------15--------------------15-|
G|-------------------------------------------------------------------------|
D|-------------------------------------------------------------------------|
A|-------------------------------------------------------------------------|
         E|-------------------------------------------------------------------------| - 2 раза

        Em                
Безобразная Эльза -
C                   G         
Королева флирта,
        D                    Am            Em          D 
С банкой чистого спирта я спешу к тебе

Нам по двадцать семь лет,
И всё, что было,
Не смыть ни водкой, ни мылом с наших душ

Припев:

F#m                                                           Hm                 
Ведь мы живём для того, чтобы завтра сдохнуть,
  F#m                                                           Hm                   
Ведь мы живём для того, чтобы завтра сдохнуть,
            A 
Най на-на,
            E 
Най на-на,
 E6        A
Най на-на

Проигрыш:
               D                                              A         D   
E|-12~14-12----14--14---12~14-12----14---12~14-12----14--14---12--14-12----|
H|----------15-------------------15---------------15--------------------15-|
G|-------------------------------------------------------------------------|
D|-------------------------------------------------------------------------|
A|-------------------------------------------------------------------------|
         E|-------------------------------------------------------------------------| - 2 раза
  Am                       C       G  D     E                               
E|-------------------------------------------------------------------------|
H|-------------------------------------------------------------------------|
G|-9--7-9--7-9-7--------------7-9--7--9--7---------------------------------|
D|---------------10-9-7----10---------------10~12~10-9---------------------|
A|-------------------------------------------------------------------------|
E|-------------------------------------------------------------------------|
   D                                         A      D                        
E|-------------------------------------------------------------------------|
H|-5~7-5---7--7---5~7-5---7---5~7-5---7--7---5--7-5------------------------|
G|-------7--------------7-----------7---------------7----------------------|
D|-------------------------------------------------------------------------|
A|-------------------------------------------------------------------------|
E|-------------------------------------------------------------------------|

Безобразная Эльза,
Ну что ты шаришь глазами,
И, как зверушка, когтями скребёшь по стеклу?

То, что было, прошло -
Значит надо добавить
Ещё, чтобы стало светло, хотя бы на миг...

Припев.

Окончание=Проигрыш

Бой на гитаре (примерный вариант):

 
Ещё песни:
 

 
 
Новые добавления
Статистика

Онлайн всего: 71
Гостей: 71
Пользователей: 0

Яндекс.Метрика

Вход на сайт