Accordium Delectus Подборка аккордов
 
Главная > К > Крик > Чтобы уснуть

Крик: Чтобы уснуть



Вступление:

E|-------0------0------0--------|
H|-----3------3------3------3---|
G|---2------2------2------2---2-|
D|-0----------------------------|
A|------------------------------|
         E|------------------------------| - 2 раза

Dsus2                                              G              
Сколько путей и сколько дорог,
                                             A
Может быть, все  открыть не смог,
                                                 Dsus2  G A 
Не зная точно, что будет потом

Сколько мелодий и стихов,
Красивой музыки и слов,
                                  Dsus2
Только вот мысли об одном

Припев:

   G              A                 Dsus2     
Чтобы уснуть и снова проснуться,
          G                   A                     Dsus2  D7 
Чтобы услышать каждый твой вздох,
     G           A             Dsus2     Hm
А иногда  тебе улыбнуться,
       Em               A              Dsus2
Встретив любовь, которая ждёт

Проигрыш:

|Dsus2  Dsus2|Dsus4  D|

Я как и ты, ты как и я,
И лишь под слабый шум дождя
Я вспоминаю иногда

Эти мгновения пустоты,
Эти слова: "Не уходи"
В сердце томятся навсегда

Припев.

Окончание:

Dsus2
E|-------0------0------0--------------0------0------0--------0---0-|
H|-----3------3------3------3-------3------3------3-------3------3-|
G|---2------2------2------2---2---2------2------2------2---------2-|
D|-0----------------------------0--------------------------------0-|
A|-----------------------------------------------------------------|
E|-----------------------------------------------------------------|

Бой на гитаре (примерный вариант):

 
Поделись с друзьями:
 
 
Последние комментарии

"Показать окорды"
 

"Удивительная, нежная песня как раз для Кати..."
 

"Володья Путен правит на Руси. Всё хорошо при нём кого ты не спроси - Олимпиады проводил, В сакральные места ходил и террористов он в сортире замочил. Но вот когда его немножечко того Тогда узнаем мы всю правду про него - Что из бюджета воровал И с Украиной воевал, И экономике при нём пришёл обвал..."
 

"Классно!!! Несколько раз подряд слушала, нравится песня и исполнение. Спасибо."
 

"Жаль,раньше не слышала эту песню,теперь буду петь про 60 лет.."
Статистика

Онлайн всего: 96
Гостей: 96
Пользователей: 0
Вход на сайт