Accordium Delectus Подборка аккордов
 
Главная > О > Орбакайте Кристина > Позови меня

Кристина Орбакайте: Позови меня



Вступление:

E|:---------------------------------------------------------------------|
H|:-----3-2------2-------3-2------2-------3-2------2-------3-2------2---|
G|:---2--------2---2---2--------2---2---2--------2---2---2--------2---2-|
D|:-0-------------------------------------------------------------------|
A|:------------------0----------------2---------------------------------|
E|:----------------------------------------------------3----------------|

E|---------------------------------------------------------------------:|
H|-----3-2------2-------3-2------2-------3-2------2-------3-2------2---:|
G|---2--------2---2---2--------2---2---2--------2---2---2--------2---2-:|
D|-0-------------------------------------------------------------------:|
A|------------------0--------------------------------------------------:|
         E|-----------------------------------3----------------3----------------:| - 2 раза

|D  Asus4|Hm7  G| - 2 раза

D                                    Asus4     
День ушёл искать рассвет,
Hm7                               G         
И луны холодный свет
D                             Asus4   
Растревожил пустотой
   Hm7       G
Сон мой

И взглянув на небеса,
Одинокая звезда
Вновь напоминает мне
О тебе

Припев:

D                Asus4 
Позови меня
                         Hm7
Среди ночи и дня
                  G
Посреди грозы,
                             D
Если хочешь, позови

Позови меня,
Я останусь до утра
Будет ночь любви,
Только-только позови


Мои сны уже давно
Чёрно-белое кино
Пробуди меня от сна,
Весна

Я тебя как чуда жду,
За тобою я пойду,
И зовёт меня родной
Голос твой

Припев.

Проигрыш:

|D  Asus4|Hm7  G| - 2 раза

Припев - 3 раза.

Бой на гитаре (примерный вариант):

 
Последние комментарии

"Супер песня "Матушка" . В ля миноре подошла мне"
 

"Исковерканы текст и мелодия. Переделана под блатную. Из мажора - в минор?"
 

"Супер песня!Я обожаю!"
 

"Шикарная песня, шикарное исполнение"
 

"выше сяких похвал. почему не издана, только на виниле, который запретили."
Вход на сайт