Accordium Delectus Подборка аккордов
 
Главная > К > Круиз > Стремления

Круиз: Стремления


Вступление:

E|--------------|

H|--------------|

G|-5-5----5-----|

D|-5-5----5---8-|

A|-3-3----3---8-|

         E|----------3-6-| - 4 раза


1.

E|-----------------------------|

H|-----------------------------|

G|-5-5-------------------5-----|

D|-5-5-------------------5---8-|

A|-3-3-------------------3---8-|

E|-------------------------3-6-|

Стремления наши известны -

E|-----------------------------|

H|-----------------------------|

G|-5-5-------------------5-----|

D|-5-5-------------------5---8-|

A|-3-3-------------------3---8-|

E|-------------------------3-6-|

Всё дальше к далёким мирам

E|-----------------------------|

H|-----------------------------|

G|-5-5-------------------5-----|

D|-5-5-------------------5---8-|

A|-3-3-------------------3---8-|

E|-------------------------3-6-|

Но вот что ещё интересно:

E|-----------------------------|

H|-----------------------------|

G|-5-5-------------------5-----|

D|-5-5-------------------5---8-|

A|-3-3-------------------3---8-|

E|-------------------------3-6-|

Стремится ли кто-нибудь к нам?


2.

E|-----------------------------|

H|-----------------------------|

G|---------------------------8-|

D|--3-3------------------3---8-|

A|--3-3------------------3-3-6-|

E|--1-1------------------1-----|

Никто пока точно не знает,

E|-----------------------------|

H|-----------------------------|

G|---------------------------8-|

D|--3-3------------------3---8-|

A|--3-3------------------3-3-6-|

E|--1-1------------------1-----|

Есть разум иной или нет,

E|-----------------------------|

H|-----------------------------|

G|---------------------------8-|

D|--3-3------------------3---8-|

A|--3-3------------------3-3-6-|

E|--1-1------------------1-----|

Но каждый в душе понимает,

E|-----------------------------|

H|-----------------------------|

G|-----------------------------|

D|--3--------5--------6--------|

A|--3--------5--------6--------|

E|--1--------3--------4--------|

Что это - великий секрет

Проигрыш:

   Cm       G/H       Cm        G    

E|-------------------------|

H|-8----9-------8------6---|

G|--------10------8------7-|

D|-------------------------|

A|-------------------------|

         E|-------------------------| - 2 раза


Припев:

Cm                     Fm                       
От кого мы ждём, от кого мы ждём,
Cm                       Gm     
От кого мы ждём ответа:
 Cm                     Fm                  
Кто поможет нам, кто поможет нам
G#               G  
Отгадать секрет

Бой на гитаре (примерный вариант):

 


 
Последние комментарии

"Кокой бой"
 

"А каким перебором здесь лучше всего разнообразить вальсовый бой?.."
 

"Хорошая песня."
 

"Песня супер! 👍🏻"
 

"Плакала..вспомнила родителей!...Спасибо !"
Статистика

Онлайн всего: 99
Гостей: 99
Пользователей: 0
Вход на сайт