Accordium Delectus Подборка аккордов
 
Главная > К > Круиз > Тетради

Круиз: Тетради



Am                                                   
В этом мире, где наша особа
Выполняет неясную роль,
F                                    Dm       
Мы с тобою состаримся оба,
Dm                              E          Am        
Как состарился в сказке король

Догорает, светясь терпеливо,
Наша жизнь в заповедном краю,
И встречаем мы здесь молчаливо
Неизбежную участь свою

Припев:

F                               G     Am       
Но когда серебристые пряди
F                                G       Am       
Над твоим засверкают виском,
F                                   Dm       
Разорву пополам я тетради
Dm                               E            Am       
И с последним расстанусь стихом


Пусть душа, словно озеро, плещет
У порога подземных ворот,
И багровые листья трепещут,
Не касаясь поверхности вод

Проигрыш: Am  Am  Am  Am  F  Dm  Dm  E  Am

Припев - 2 раза.

Окончание:

E|--------5----------6---5--------------------8-8--6-5---------|

H|-6--5-------5-6------------8----7~8-10-7-------------8-------|

G|------7---7-----6----6---6---6-----------7-------------------|

D|-0------------------------------0-------------5--------------|

A|----------------0--------------------------------------------|

E|-----------------------------------------------------6-------|

 

E|---------6-5---5--------------10-------6-------5-------5-----|

H|-----5-------5---6---8---9-----------------6-------5---------|

G|---6---6-----------7---9---10----------------7-------------7-|

D|-----------------0---0---0-----------8---8-------7---7---7-0-|

A|-0-----------------------------------------0-------0---------|

E|-----------------------------------6-------------------------|

 

E|-----10-------10---0---9---10--------------------------------|

H|-8--------6--------5-------10--------------------------------|

G|-7--------7--------6-------10--------------------------------|

D|-8--------0----------------0---------------------------------|

A|-------------------0-----------------------------------------|

E|-------------------------------------------------------------|


Бой на гитаре (примерный вариант):

 


 
Последние комментарии

"Кокой бой"
 

"А каким перебором здесь лучше всего разнообразить вальсовый бой?.."
 

"Хорошая песня."
 

"Песня супер! 👍🏻"
 

"Плакала..вспомнила родителей!...Спасибо !"
Статистика

Онлайн всего: 83
Гостей: 83
Пользователей: 0
Вход на сайт