Accordium Delectus Подборка аккордов
 
Главная > П > Полтева Ксения > Две трети мира

Ксения Полтева: Две трети мира


Упрощённая версия

  Hm                               F#/B                                      

E|---------2----------------2----------------2----------------2-------------|

H|-----3-------3--------3-------3--------2-------2--------2-------2---------|

G|---4---4---4---4----4---4---4---4----3---3---3---3----3---3---3---3-------|

D|--------------------------------------------------------------------------|

A|-2----------------2----------------1----------------1---------------------|

E|--------------------------------------------------------------------------|

 

  F#                                Hm                  Gmaj7                

E|---------2----------------2----------------2--------------------2---------|

H|-----2-------2--------2-------2--------3-------3------------3-------3-----|

G|---3---3---3---3----3---3---3---3----4---4---4---4--------4---4---4---4---|

D|--------------------------------------------------------------------------|

A|-----------------------------------2--------------------------------------|

E|-2----------------2-------------------------------------3-----------------|

                                     Во славу гордого владычества,           

 

                   F#              Bdim7      F#                              

E|---------2----------------2--------3--------2-----------------------------|

H|-----3-------3--------2-------2--------2--------2-------------------------|

G|---4---4---4---4----3---3---3---3----0---0----3---3-----------------------|

D|--------------------------------------------------------------------------|

A|-----------------------------------1--------------------------------------|

E|-3----------------2-------------------------2-----------------------------|

           Короны, мантии,                                                   

 

  H7             H7+5     H7         Em         Em+7 Em7                     

E|---------2-------3-------2------------------0---------------0-------------|

H|-----0-------0-------0-------0----------0---------------0-------0---------|

G|---2---2---2---2---2---2---2---2------0---0---0---0---0---0---0---0-------|

D|------------------------------------2-----------1---0---------------------|

A|-2------------------------------------------------------------------------|

E|--------------------------------------------------------------------------|

   Идут суда Её Величества Во мглу Атлантики               Морей покорных    

 

 Cmaj7                              Hm              Gmaj7                   

E|---------0----------------0----------------2----------------2-------------|

H|-----0-------0--------0-------0--------3-------3--------3-------3---------|

G|---0---0---0---0----0---0---0---0----4---4---4---4----4---4---4---4-------|

D|--------------------------------------------------------------------------|

A|-3----------------3----------------2--------------------------------------|

E|----------------------------------------------------3---------------------|

  карты пёстрые           У ног распластаны             Над чем ещё, живя на

 

 Cmaj7                              F#              Bdim7     F#             

E|---------0----------------0----------------2--------3--------2------------|

H|-----0-------0--------0-------0--------2-------2--------2--------2--------|

G|---0---0---0---0----0---0---0---0----3---3---3---3----0---0----3---3------|

D|--------------------------------------------------------------------------|

A|-3----------------3---------------------------------1---------------------|

E|-----------------------------------2-------------------------2------------|

   острове               Прикажешь властвовать?                              


Надёжны подданные верные,
Им просто верится
И нет нигде тебе соперника,
И нет соперницы

Но пусто сердце, ибо нищенству
Cродни всевластие
В двух третях мира не отыщется
Один Ланкастер

 Cmaj7               Hm                Cmaj7               Hm                

E|---------0------------------2------------------0------------------2-------|

H|-----0-------0----------3-------3----------0-------0----------3-------3---|

G|---0---0---0---0------4---4---4---4------0---0---0---0------4---4---4---4-|

D|--------------------------------------------------------------------------|

A|-3------------------2------------------3------------------2---------------|

E|--------------------------------------------------------------------------|

    Две трети мира - рифы, скаты,                   Киты и мидии,           

 

   H7                                    Em         Em+7 Em7                  

E|---------2-------------------2------------------0---------------0---------|

H|-----0-------0-----------0-------0----------0---------------0-------0-----|

G|---2---2---2---2-------2---2---2---2------0---0---0---0---0---0---0---0---|

D|----------------------------------------2-----------1---0-----------------|

A|-2-------------------2----------------------------------------------------|

E|--------------------------------------------------------------------------|

     От рома пьяные закаты,         И обе И-и-и-и-и-нди-и-и                 

 

     Cmaj7              C9       C       Hm               Hm9     Hm7        

E|-------------0--------10-------8----------------2--------9-------7--------|

H|---------0-------0----8----8-------8--------3-------3----7---7-------7----|

G|-------0---0---0---0--9--9---9---9---9----4---4---4---4--7-7---7---7---7--|

D|---------------------------------------------------------7----------------|

A|-----3----------------------------------2---------------------------------|

E|----------------------8---------------------------------------------------|

И паруса на мачтах белые,          И кили острые,                           

 

     Em/C#             Em                F#             Bdim7     F#         

E|-------------0----------------0-----------------2-------3--------2--------|

H|---------0-------0--------0-------0---------2-------2-------2--------2----|

G|-------0---0---0---0----0---0---0---0-----3---3---3---3---0---0----3---3--|

D|----------------------2---------------------------------------------------|

A|-----4--------------------------------------------------1-----------------|

E|----------------------------------------2------------------------2--------|

И непонятно,    что ты делаешь    На этом о-о-о-о-о-острове...               


 


 
Последние комментарии

"Чудесная песня, Прослушала много раз. Спасибо Авторам и певцам."
 

"ВИА Поющие гитары Печаль -беда = Сарафанная молва ! Кто же первый?"
 

"отлично ,благодарю"
 

"А бой какой?"
 

"Прррррекрасно!!!"
Статистика

Онлайн всего: 127
Гостей: 127
Пользователей: 0
Вход на сайт