Accordium Delectus Подборка аккордов
 
Главная > С > Сергеев Леонид > Я сижу на пеньке

Леонид Сергеев: Я сижу на пеньке


Вступление:

E|-------------0-----------|

H|-------1-------1---1-----|

G|-----2---2-------2---2---|

D|---2-------2-----------2-|

A|-0-----------------------|

         E|-------------------------| - 4 раза


    Am       Am/C     Dm          E       Am 
Я сижу на пеньке придорожном и в небо смотрю,
   Am       Am/C     Dm         E     Am 
Одиноко, прекрасно и пусто, и птицы парят
     C      F        A7             Dm 
Опускается небо к земле и рождает зарю,
     Am    Am/C       Dm       E     Am 
Поднимается небо с земли и рождает закат

Припев:

 Am  Am/C Dm       E       Am  
Вре-е-мя  лёгкою птицей спешит,
    G        F      A7   Dm   E
Опахалом-крылом осеняя лета-а-а
Am Am/C  Dm        E        Am 
Чем я, в чём провинился, когда,
       G        Em       Am   
Что теперь не дано мне летать?

Проигрыш:

E|-------------2-----0-----|

H|-------1-------1-----1---|

G|-----2---2-------2-----2-|

D|---2-------2-------------|

A|-0-----------------------|

         E|-------------------------| - 2 раза


Воздух призрачно зыбок и в нём каждый камень - курган,
Под которым неведомый след в заповедном лесу
Опускается небо к реке и рождает туман,
Поднимается небо с реки и рождает росу

Припев.

Проигрыш:

E|-------2-----3-----2-----|

H|-----1---1-----1-----1---|

G|---2-------2-----2-----2-|

D|-------------------------|

A|-0-----------------------|

         E|-------------------------| - 2 раза


Обрывается след тормозной, тишина впереди,
Сигаретный дымок по закатному вьётся лучу
Опускается небо ко мне, замирает в груди,
Поднимается небо со мной, неужели лечу?

Припев:

Время лёгкою птицей спешит,
Опахалом-крылом осеняя лета
Чем я, в чём провинился, когда,
       G        Em       
Что теперь не дано мне...

Время лёгкою птицей спешит,
Опахалом-крылом осеняя лета-а
Чем я, в чём провинился, когда,
       G        Em       Am   
Что теперь не дано мне летать?

Окончание:

E|-0------2------3------2-----|

H|---1-1----1-1----1-1----1-1-|

G|---2-2----2-2----2-2----2-2-|

D|---2-2----2-2----2-2----2-2-|

A|----------------------------|

         E|----------------------------| - 2 раза

 

E|-0-0-0-|

H|-1-0-1-|

G|-2-0-2-|

D|-2-0-2-|

A|-0-0-0-|

E|-------|

 
Поделись с друзьями:
 
 
Последние комментарии

"...романтика, уволь / От паруса с нелепою заплатой..."
 

"Правильные аккорды. Я так же подобрал - только в ля миноре. А здесь не в ля, а фа миноре."
 

"Класс!!!!!!!!!!"
 

"Спасибо ОГРОМНОЕ! Удачи Вам!"
 

"ок"
Настройка гитары
1-ая струна E (ми)  

2-ая струна H (си)  

3-я струна G (соль) 

4-ая струна D (ре) 

5-ая струна A (ля) 

6-ая струна E (ми) 
Статистика

Онлайн всего: 102
Гостей: 102
Пользователей: 0
Вход на сайт