Accordium Delectus Подборка аккордов
 
Главная > Л > Лесоповал > Не думай

Лесоповал: Не думай

(слова Михаила Танича, музыка Сергея Коржукова)
 


Смотреть в тональности Am

Вступление (примерный вариант перебора):

H7             Em              Hm      F#      Hm             
E|---------2---------------0-------------------------------2-------|
H|-----4-----4---4-----0-----0---0-----3-------2-------3-----3---3-|
G|---2---2-----2-----0---0-----0-----4---4---3---3---4---4-----4---|
D|-----------------------------------------------------------------|
A|-2-------------------------------2---------------2---------------|
E|-----------------0-----------------------2-----------------------|

Hm                          F#7
Ты не думай, не думай, что я очумел
 F#7                     Hm
От твоей красоты ненаглядной,
H7                      Em  
Просто встретил тебя, разглядел, как сумел,
  Hm         G7              F#
И со всеми делюсь - я не жадный
H7                       Em  
Просто встретил тебя, разглядел, как сумел,
 Hm         F#           Hm
И со всеми делюсь - я не жадный

Ты не думай, не думай, что там, в лагерях
Навсегда моя песенка спета
Я стою, как стоят понятые в дверях,
Твоего дожидаясь ответа
Я стою, как стоят понятые в дверях,
Твоего дожидаясь ответа

Проигрыш=Вступление

Ты не думай, не думай, что я загрубил,
Говоря с непривычки такое
Если это - любовь, значит, я полюбил,
Значит, кончено всё воровское
Если это - любовь, значит, я полюбил,
                Hm           F#         Hm    G
Значит, кончено всё воровское

Переход на 1 полутон (на 1 лад) выше (Cm)

Cm                           G7  
Ты не думай, не думай, что я обалдел
  G7                             Cm
До того, чтоб рассказывать байки,
    C7                            Fm              
И что я в том краю, где царит беспредел,
      Cm           G#7          G
Зачерствел, как сухарик из пайки
C7                         Fm            
И что я в том краю, где царит беспредел,
           Cm             G           Cm     
Зачерствел, как сухарик из пайки

Проигрыш:

   C7             Fm              Cm       G      Cm
E|---------3---------------1-------------------------------3-------|
H|-----5-----5---5-----1-----1---1-----4-------3-------4-----4---4-|
G|---3---3-----3-----1---1-----1-----5---5---4---4---5---5-----5---|
D|-----------------------------------------------------------------|
A|-3-------------------------------3---------------3---------------|
E|-----------------1-----------------------3-----------------------|

Ты не думай, не думай, что я, фармазон,
Пройду мимо вот этого шанса!
И ни сам Шуфутинский, ни даже Кобзон
Не споют тебе лучше романса
И ни сам Шуфутинский, ни даже Кобзон
Не споют тебе лучше романса

Ты не думай, не думай, что я очумел
От твоей красоты ненаглядной,
Просто встретил тебя, разглядел, как сумел,
И со всеми делюсь - я не жадный
Просто встретил тебя, разглядел, как сумел,
И со всеми делюсь - я не жадный

Окончание:

   C7             Fm              Cm       G      Cm
E|---------3---------------1-------------------------------3---------|
H|-----5-----5---5-----1-----1---1-----4-------3-------4-----4-------|
G|---3---3-----3-----1---1-----1-----5---5---4---4---5---5-----5-----|
D|---------------------------------------------------------------5---|
A|-3-------------------------------3---------------3---------------3-|
E|-----------------1-----------------------3-------------------------|
 


 
Последние комментарии

"Вместо с/ н луше Сm"
 

"я в восторге! Есть вариант другого исполнения. хочу пробовать этот вариант."
 

"Это бывший вратарь футбольной команды Динамо (Киев)!У меня есть его автограф! А кто написал эту песню, увы, неизвестно!?"
 

"Большое спасибо!"
 

"Спасибо!"
Статистика

Онлайн всего: 29
Гостей: 29
Пользователей: 0
Вход на сайт