Accordium Delectus Подборка аккордов
 

Любаша Ионова: Мама



В оригинале на полтона ниже (G#m)

Вступление (примерный вариант перебора):

  Dm               E               F                                
E|---------1---------------0---------------1---------------1-------|
H|-----3-------3-------0-------0-------1-------1-------1-------1---|
G|---2---2---2---2---1---1---1---1---2---2---2---2---2---2---2---2-|
D|-0---------------------------------------------------------------|
A|-----------------------------------------------------------------|
E|-----------------0---------------1---------------1---------------|

  Dm                               E                                
E|---------1---------------1---------------0---------------0-------|
H|-----3-------3-------3-------3-------0-------0-------0-------0---|
G|---2---2---2---2---2---2---2---2---1---1---1---1---1---1---1---1-|
D|-0---------------0-----------------------------------------------|
A|-----------------------------------------------------------------|
E|---------------------------------0---------------0---------------|

  Am                                                                
E|---------0---------------0---------------0---------------0-------|
H|-----1-------1-------1-------1-------1-------1-------1-------1---|
G|---2---2---2---2---2---2---2---2---2---2---2---2---2---2---2---2-|
D|-----------------------------------------------------------------|
A|-0---------------0---------------0---------------0---------------|
E|-----------------------------------------------------------------|

    Am                                 Dm
Ты меня родила, ты меня воспитала,
         E                                Am
Моя милая мама, тебя я люблю
     Am                                     Dm
И мне кажется, жизни моей будет мало,
                   G7                                      C    Am
Чтоб сказать тебе просто: "Благодарю!"

Припев:

Dm      E               Am 
Я за тебя молюсь, я за тебя боюсь,
    Dm      G7                C
Седые волосы   по ветру вьются
Dm      E             Am     
Я за тебя молюсь и я тобой горжусь,
 Dm      E                    Am
От счастья  даже слёзы льются


Ты рядышком со мной - и это чудо,
Переживаешь каждый пустячок
Всё то, чему учила, не забуду,
Ты в моей жизни светлый маячок

Припев.

Проигрыш:

|Dm  Dm|E  E|

И пусть в жару, и даже в стужу,
Где б ни была я, ты меня найдёшь
Всегда в тебя я верить, мама, буду
И прибегу, лишь только позовёшь

Припев.

Проигрыш:

|Am  Am|Dm  Dm|E  E|Am  Am|Dm  Dm|E  E|

Мама, я люблю твои тёплые, нежные руки!
Мама, я люблю твой долгий и ласковый взгляд!
Храни Господь мою мамочку!

Припев.

 Dm                E                     Am
От счастья, мама,  даже слёзы льются!
 


 
Последние комментарии

"Супер!"
 

"Вы это песню выкладывали в исполнении "Цветов"."
 

"Любые слова, похвалы, не смогут выразить признательность авторам, Михаилу Таничу и Серёже Коржукову. Земля им пухом."
 

"После знака / идет басовая нота , которую надо играть, например F#/B это аккорд фа диез с басовой си или h7/d# аккорд си септ с басовой ре диез, обычно басовые ноты играются когда идет перебор аккорда (арпеджио)..."
 

"Что за аккорды: F#/В и H7/D# ?.. их в сборнике нету..."
Статистика

Онлайн всего: 102
Гостей: 102
Пользователей: 0
Вход на сайт