Accordium Delectus Подборка аккордов
 
Главная > Л > Любэ > Берёзы

Любэ: Берёзы


В оригинале на 1 тон выше (Hm).

Можно проиграть этими же аккордами, поставив каподастр на 2-ом ладу


Вступление:

E|--------------------------------------------|

H|----0-1-3-1-0-----0-1-3-1-0-----0-1-3-1-0---|

G|-2------------2-------------2-------------2-|

D|--------------------------------------------|

A|-0------------------------------------------|

E|--------------------------------------------|



              Am               F       G          C    Am  
Отчего так в России берёзы шумят,
                            F            G         C       A7
Отчего, белоствольные, всё понимают?
               Dm             E                        Fmaj7    Dm
У дорог, прислонившись по ветру, стоят,
         Am          E           Am  
И листву так печально кидают

Я пойду по дороге, простору я рад,
Может это лишь всё, что я в жизни узнаю
Отчего так печальные листья летят,
Под рубахою душу ласкают?

Припев:

A7    Dm         G           C        Am 
А на сердце опять горячо-горячо,
    Dm          E             Am  
И опять, и опять без ответа
A7    Dm            G         C            Am 
А листочек с берёзки упал на плечо,
         Dm         E          Am    
Он как я, оторвался от веток

Проигрыш:

E|--------------------------------------------|

H|----0-1-3-1-0-----0-1-3-1-0-----0-1-3-1-0---|

G|-2------------2-------------2-------------2-|

D|--------------------------------------------|

A|-0------------------------------------------|

E|--------------------------------------------|


Посидим на дорожку, родная, с тобой,
Ты пойми, я вернусь, не печалься, не стоит
И старуха махнёт на прощанье рукой,
И за мною калитку закроет

Отчего так в России берёзы шумят,
Отчего хорошо так гармошка играет?
Пальцы ветром по кнопочкам враз пролетят,
А последняя, эх, западает...

Припев.

Окончание:

E|--------------------------------------------|

H|----0-1-3-1-0-----0-1-3-1-0-----0-1-3-1-0---|

G|-2------------2-------------2-------------2-|

D|--------------------------------------------|

A|-0------------------------------------------|

E|--------------------------------------------|

 


 
Последние комментарии

 
"КЛАСС!!!!!!!!!!!!!!!!!"

"Молодца!"
 

"В припеве аккорды под большим вопросом. Жалко, что композитор умер и нотную партитуру не оставил."
 

"Спасибо за аккорды."
 

"Спасибо, Павел"
Статистика

Онлайн всего: 79
Гостей: 79
Пользователей: 0
Вход на сайт