Accordium Delectus Подборка аккордов
 
Главная > Л > Любэ > Давай-наяривай

Любэ: Давай-наяривай



Вступление:

E|-------5-7--5----------5-7--5----------4-7--4----------5-7-5-----|
H|-----6------6--------5------5--------3---9--3--------5-------5---|
G|---7--------7------5--------5------4-----7--4------5-----------5-|
D|-0---------------------------------------------------------------|
A|-----------------0-------------------------------0---------------|
E|---------------------------------0-------------------------------|

E|-------5-7--5----------5-7--5--------4---2---4-------------------|
H|-----6------6--------5------5--------3---3---3-------------------|
G|---7--------7------5--------5------4-----------------------------|
D|-0---------------------------------------------------------------|
A|-----------------0-----------------------------------------------|
E|---------------------------------0-------------------------------|

|Am  Am|Am7  Am7|F  F|E  Am| - 2 раза

Am                                 
/А ну, давай-давай-наяривай,
F                                 
А ну, давай-давай-наяривай,
  Dm                       Am              E              Am          
          А ну, давай-давай-наяривай, гитара семиструнная/ - 2 раза

-----------------------------------------------------------------------

Am                     E            Am        
Распрощался я с юностью вешней,
          F              G             C 
Но осталось похмелье весны
  Dm               E          Am           F
Я гуляю весёлый и грешный
           Dm           D#dim7         E
По бескрайним просторам страны

Я простился с любовною дрожью,
Но забавы остался запас
По великому, по бездорожью,
   Dm         E          Am
Я пою, я играю для вас!

Припев:

  Dm             Am        
А ну, давай-наяривай,
     E              Am        
Гитара семиструнная!
   Dm              Am           
Чего сидеть да горевать,
         E              Am     
Ведь ночь такая лунная

    A7                      Dm         
А ну, давай-давай-наяривай,
    G                C        
Гитара семиструнная,
   Dm              Am           
Чего сидеть да горевать,
          E             Am       
Ведь ночь такая лунная

А ну, налей, лей, не жалей,
Похмелье - штука тонкая
А ну, давай-ка, Николай,
Играй гитара звонкая!

А ну, налей, не жалей,
Похмелье - штука тонкая
А ну, давай-давай-давай,
Играй, гитара звонкая!

Проигрыш:

/А ну, давай-давай-наяривай,
А ну, давай-давай-наяривай,
     А ну, давай-давай-наяривай, гитара семиструнная/ - 2 раза

-----------------------------------------------------------------------

Про меня не такое расскажут,
Не такое небось наплетут:
Дескать, бражничал, дескать, куражил
И расхаживал барином тут

Дайте-дайте мне песен россейских,
Я босой обойду пол-страны
Распрощался я с юностью вешней,
Но осталось похмелье весны...

Припев.

  Dm              Am           
А ну, давай-давай-давай,
     E                Am       
Играй, гитара звонкая!

Проигрыш:

|Dm  Am|E  F|Dm  Am|E  Am| - 2 раза

Припев:

/А ну, давай-наяривай,
Гитара семиструнная!
Чего сидеть да горевать,
Ведь ночь такая лунная

А ну, налей, не жалей,
Похмелье - штука тонкая
А ну, давай-давай-давай,
Играй, гитара звонкая!/ - 2 раза

  Dm              Am            
А ну, давай-давай-давай,
     E                   F            
Давай-давай-давай-давай,
   Dm               Am            
Давай-давай-давай-давай,
     E                 Am
Давай-давай-давай

Окончание:

|Am  Am|Am7  Am7|F  F|E  Am| - 2 раза

/А ну, давай-давай-наяривай,
А ну, давай-давай-наяривай,
   А ну, давай-давай-наяривай, гитара семиструнная/ - 2 раза

Бой на гитаре (примерный вариант):

 


 
Последние комментарии

"затронуло за живое спасибо Аркаша!"
 

"Что-то ,как-то не очень воспроизводится песенка! Может технический брак?"
 

"Прекрасное исполнение."
 

"Си бемоль начало и так далее! валенки"
 

"Что вы за подборщик вам медведь насухо наступил там другие окорды в оригинале в исполнении Муслима магомаева"
Статистика

Онлайн всего: 156
Гостей: 156
Пользователей: 0
Вход на сайт