Accordium Delectus Подборка аккордов
 
Главная > Л > Любэ > Комбат

Любэ: Комбат



Вступление:

    Fm     Fm/G#     Cm     Cm/D#     G              Cm     Cm/D#       
E|-----4-------4------------------------3-------3--------------------|
H|-----6-------6--------4---------------3-------3-------4-------4----|
G|---5---0---5---5------5-------------4---4---4---4-----5-------5----|
D|-3-------6----------5---0---5-3-4-5-----------------5---0---5---5--|
A|------------------3-------6---------------5-------3-------6--------|
E|-------------------------------------------------------------------|
    Fm     Fm/G#     Cm     Cm/D#     G              Cm     Cm(2)       
E|-----4-------4------------------------3-------3--------------------|
H|-----6-------6--------4---------------3-------3-------4--------8---|
G|---5---0---5---5------5-------------4---4---4---4-----5--------8---|
D|-3-------6----------5---0---5-3-4-5-----------------5---5----8---8-|
A|------------------3-------6---------------5-------3-------10-------|
E|-------------------------------------------------------------------|

Cm             Cm/D# Fm6                  G          
А на войне,             как на войне -
Cm               Cm/D#      G#                     
Патроны, водка, махорка в цене
Fm             Fm/G# Cm               Cm/D#    
А на войне           нелёгкий труд,
G                        Cm         Cm/D# 
А сам стреляй,     а то убьют

Fm     Fm/G# Cm    Cm/D#  
М-м-м-м,       м-м-м,
G              Cm       
М-м-м-м-м...


А на войне, как на войне...
Подруга, вспомни обо мне
А на войне, неровен час,
А может - мы, а может - нас

М-м-м-м, м-м-м,
G                  
М-м-м...

Припев:

Cm                               
Комбат-батяня, батяня-комбат,
    Cm                            Fm(2)        
Ты сердце не прятал за спины ребят
  Fm(2)                Cm              
Летят самолёты и танки горят,
G                       
Так бьёт ё-комбат, ё-комбат!

Cm                                
Комбат-батяня, батяня-комбат,
    Cm                      Fm(2)         
За нами Россия, Москва и Арбат!
Fm(2)          G     D#7            G#  
Огонь, батарея! Огонь, батальон!
     Fm6                    G  
Комбат-ё, командует он

 Cm                   Fm(2)               
Огонь, батарея! Огонь, батальон!
 Cm                    Fm(2)               
Огонь, батарея! Огонь, батальон!
 Cm                   Fm(2)               
Огонь, батарея! Огонь, батальон!
 Cm                   Fm(2)                                  Cm
   Огонь, батарея! Огонь! Огонь! Огонь! Огонь и я...

Проигрыш:

    Cm     Cm/D#    Fm6     G         
E|-----------------------------3---|
H|-----4-------4-------6-------3---|
G|-----5-------5-------5-----4---4-|
D|---5---0---5---5---6---6---------|
A|-3-------6-------5---------------|
E|-------------------------3-------|

А на войне, как на войне -
Солдаты видят мамку во сне
На войне... да, то оно...
Там всё серьёзней, чем в кино

М-м-м-м, м-м-м,
М-м-м-м-м...

Да, война, война, война...
Дурная тётка, стерва она!
Эх, война, война идёт,
А пацана девчонка ждёт

М-м-м-м, м-м-м,
М-м-м...

Припев:

Комбат-батяня, батяня-комбат,
Ты сердце не прятал за спины ребят
Летят самолёты и танки горят,
Так бьёт ё-комбат, ё-комбат!

Комбат-батяня, батяня-комбат,
За нами Россия, Москва и Арбат!
Огонь, батарея! Огонь, батальон!
     Fm6                    G    E  
Комбат-ё, командует о-о-он

Am                               
Комбат-батяня, батяня-комбат,
     Am                            Dm             
Ты сердце не прятал за спины ребят
   Dm                   Am              
Летят самолёты и танки горят,
E                       
Так бьёт ё-комбат, ё-комбат!

Am                               
Комбат-батяня, батяня-комбат,
    Am                       Dm            
За нами Россия, Москва и Арбат!
 Dm             E      C7               F   
Огонь, батарея! Огонь, батальон!
     Dm6                    E  
Комбат-ё, командует он

 Am                    Dm                  
Огонь, батарея! Огонь, батальон!
  Am                    Dm                   
Огонь, батарея! Огонь, батальон!
  Am                    Dm                   
Огонь, батарея! Огонь, батальон!
  Am                   Dm                                     Am
  Огонь, батарея! Огонь! Огонь! Огонь! Огонь и я...

Проигрыш:

    Am     Am/C     Dm6     E7      Am     Am/C     F                 
E|-----------------------------0-----------------------1-------1---|
H|-----1-------1-------3-------3-------1-------1-------1-------1---|
G|-----2-------2-------2-----1---1-----2-------2-----2---2---2---2-|
D|---2---2---2---2---3---3-----------2---2---2---2-----------------|
A|-0-------3-------2---------------0-------3---------------3-------|
E|-------------------------0-----------------------1---------------|
    Dm     Dm/F     Am     Am/C     E7              Am     Am/C      
E|-----1-------1-----------------------0-------0-------------------|
H|-----3-------3-------1---------------3-------3-------1-------1---|
G|---2---2---2---2-----2-------------1---1---1---1-----2-------2---|
D|-0-------3---------2---2---2-0-1-2-----------------2---2---2---2-|
A|-----------------0-------3---------------2-------0-------3-------|
E|-----------------------------------------------------------------|
    Dm     Dm/F     Am     Am/C     E7                
E|-----1-------1-----------------------0-------0---|
H|-----3-------3-------1---------------3-------3---|
G|---2---2---2---2-----2-------------1---1---1---1-|
D|-0-------3---------2---2---2-0-1-2---------------|
A|-----------------0-------3---------------2-------|
E|-------------------------------------------------|

Am             Am/C Dm6                 E7         
А на войне,          как на войне...
А на войне, как на войне...
А на войне, как на войне...

Окончание:

    Am     Am/C     Dm6     E7      Am  
E|-----------------------------0---0-|
H|-----1-------1-------3-------3---1-|
G|-----2-------2-------2-----1---1-2-|
D|---2---2---2---2---3---3---------2-|
A|-0-------3-------2---------------0-|
E|-------------------------0---------|

Бой на гитаре (примерный вариант для припева):

 
Ещё песни:
 

 
 
Последние комментарии

"Спасибо! отличная песня."
 

"Интересно кто так бездарно подбирает?! В оригинале слабо что ли?"
 

"Простая и в тоже время прекрасная,душевная песня.Спасибо!"
 

"Дзякуй"
 

"Показать окорды"
Статистика

Онлайн всего: 46
Гостей: 46
Пользователей: 0
Вход на сайт