Accordium Delectus Подборка аккордов
 
Главная > Л > Любэ > За тебя, Родина-Мать!

Любэ: За тебя, Родина-Мать!



Вступление:

          Em           C           D           G      

E|---------------0-----------0-----------2-----------|

H|-------------0---0-------1---1-------3---3-------0-|

G|-----------0-------0---0-------0---2-------2---0---|

D|---------------------------------0-----------------|

A|---------------------3-----------------------------|

E|---------0-----------------------------------3-----|

 

1|-----------------0-2-3-------2-0-------------------|

2|---------------0-----------------3-------0-2-0-----|

3|-2-0/0---0-----------------------------3-----------|

4|-------4-------------------------------------------|

 

 D/F#     Em           C           D          H7      

E|---------------0-----------0-----------2-----2-----|

H|-------3-----0---0-------1---1-------3---3---0-----|

G|----2------0-------0---0-------0---2-------2-2-----|

D|---------------------------------0-----------1-----|

A|---------------------3-----------------------2-----|

E|-2-------0-----------------------------------------|

 

1|-----------------0-2-3-------2-0-------------------|

2|---------------0-----------------3-------0-2-0-----|

3|-2-0/0---0-----------------------------3-----------|

4|-------4-------------------------------------------|


Em                          C   G   D/F#
Через тернии к звёздам, 
Em                           C  G      
Через радость и слёзы,
C                           D G  Em 
Мы проложим дорогу, 
C                            D Em     
И за всё - слава Богу!

И останутся в песнях 
Наши лучшие годы
И останется в сердце 
Этот ветер свободы

Припев:

            Em                  C   
Головы вверх гордо поднять,
         D               G   
За тебя - Родина-Мать!
D/F#        Em             C    
Мы до конца будем стоять,
         D                G     
За тебя - Родина-Мать!

D/F#        Em                 C    
Мы будем петь, будем гулять,
        D                G    
За тебя - Родина-Мать!
D/F#        Em                 C     
И за страну трижды: "Ура!",
         D               H7   
За тебя - Родина-Мать!


Em                       C G                        G D/F#     Em           
Я люблю тебя, мама, (Со мною прошла ты этот путь...)
                          C G                    G                  Am     
Ты ведь верила, знала (Терпение и воля всё перетрут...)
Am                      D Em    Em                                      C        
Мама, как ты учила (Я верил, я бился, я шёл до конца...)
C                     D Em     Em                             D            Em     
Мама, мы победили! (Я верил, я знал, что так будет всегда...)


Через тернии - к звёздам, 
Через радость и слёзы,
Гордо реет над нами 
Нашей Родины знамя!

Припев.

C          D  Em C          D       Em    
По полю иду,  про себя шепчу: 
 C  D Em  C       D       Em  
"М-м-м...   Я тебя люблю!"
По морю иду, тихо напою:
"М-м-м... Я тебя люблю!"

По небу летит журавлиный клин...
Родина - я твой навеки сын!
Где бы ни был я - в сердце у меня
 C D Em  C       D 
Родина,   ты моя!

Окончание:

          Em           C           D           G

E|---------------0-----------0-----------2-----------|

H|-------------0---0-------1---1-------3---3-------0-|

G|-----------0-------0---0-------0---2-------2---0---|

D|---------------------------------0-----------------|

A|---------------------3-----------------------------|

E|---------0-----------------------------------3-----|

 

1|-----------------0-2-3-------2-0-------------------|

2|---------------0-----------------3-------0-2-0-----|

3|-2-0/0---0-----------------------------3-----------|

4|-------4-------------------------------------------|

 

 D/F#     Em           C           D           G

E|---------------0-----------0-----------2-----3-----|

H|-------3-----0---0-------1---1-------3---3---0-----|

G|----2------0-------0---0-------0---2-------2-0-----|

D|---------------------------------0-----------0-----|

A|---------------------3-----------------------2-----|

E|-2-------0-----------------------------------3-----|

 

1|-----------------0-2-3-------2-0-------------------|

2|---------------0-----------------3-------0-2-0-----|

3|-2-0/0---0-----------------------------3-----------|

4|-------4-------------------------------------------|

 


 
Последние комментарии

"Великая песня, только почти забытая."
 

"Красивая песня!"
 

"Мы её в школе играли забыл уже слова и вновь нашёл Как же давно было играли на самопалах"
 

"Прекрасная песня!"
 

"ЗДОРОВО"
Статистика

Онлайн всего: 39
Гостей: 39
Пользователей: 0
Вход на сайт