Accordium Delectus Подборка аккордов
 

Любовь Попова: Мама



Вступление (примерный вариант перебора):

  Am                      Dm                        
E|-------0-----------0-----------1-----------1-----|
H|-----1---1-------1---1-------3---3-------3---3---|
G|---2-------2---2-------2---2-------2---2-------2-|
D|-------------------------0-----------0-----------|
A|-0-----------0-----------------------------------|
E|-------------------------------------------------|

  Dm           E          Am                        
E|-------1-----------0-----------0-----0-----------|
H|-----3---3-------0---0-------1---1---1-----------|
G|---2-------2---1-------1---2-------2-2-----------|
D|-0-----------------------------------2-----------|
A|-------------------------0-----------0-----------|
E|-------------0-----------------------------------|


  Am                                                        Dm    
Я помню, бродили с тобой босиком мы по полю,
                   Dm                       E                            Am  Dm E
Мне в косы цветы заплетала в природной тиши
   Am                                                 Dm
Примером своим научила быть стойкою боли
    Dm                            E                            Am
И слово держать, и дружить, и любить от души

Припев:

Dm                                                     
Мама! Спасибо тебе за то, что ты есть!
Am                                                           
Мама! Я знаю, что значит свобода и честь!
     Dm            G                                                     C    A7
Мама! Всё лучшее, что ты привила, со мною навек!

Мама! И сколько б отмерено не было сил,
Мама! Я буду хранимая взглядом твоим!
Dm         F                                E                           Am  
Мама! Единственный в мире огромном родной человек!


Я буду стараться во всём на тебя быть похожей
И долг материнский нести пред своими детьми,
А если совсем будет трудно, то в день непогожий
Глаза твои вспомню, и выглянет солнце из тьмы

Припев.

Проигрыш:

|Dm  Dm|Dm  Dm|Am  Am|Am  Am|Dm  Dm|E  E|Am  Am|

Припев.

 F                                E                           Am
Единственный в мире огромном родной человек!

Бой на гитаре (примерный вариант):

 


 
Последние комментарии

"отсутствует вступление.исправьте пожалуйста."
 

"не плохо, хотя есть неточность. между третьим и четвертым куплетом отсутсвует специальный проигрыш. не мешало бы исправить."
 

"отлично!😀"
 

"Ну вот и на гитаре заодно научился а что это вот за буквы не пойму G7 какие-то,а это наверное качество дерева гитары.Ну вот теперь всё понял"
 

"Спасибо!"
Статистика

Онлайн всего: 112
Гостей: 112
Пользователей: 0
Вход на сайт