Accordium Delectus Подборка аккордов
 
Главная > С > Сенчина Людмила > Нежность

Людмила Сенчина: Нежность



Можно сыграть перебором "шестёрка": бас, 3-я, 2-я, 1-я, 2-я, 3-я

Вступление:

Am            
E|-----------0-5-|
H|-------0-1-----|
G|-----2---------|
D|---2-----------|
A|-0-------------|
E|---------------|
 
      E             Am            F Dm Esus4
E|-8--10-8-7----10--12-10-8----8--8-7-5----5--4-|
H|----------------------------------------------|
G|----------------------------------------------|
D|----------------------------------------------|
A|----------------------------------------------|
E|----------------------------------------------|

Am                       E   
Ходит где-то по свету
  Am                     G 
Близкий мне человек
              F  E                         Am    
Пусть мою     нежность он встретит
     Dm                E          Am
И в дождь, и в зной, и в снег

Проигрыш:

        E             Am            F     Dm  Esus4 E
E|-8--10-8-7----10--12-10-8----8--8-7-5---------|
H|-----------------------------------------3--5-|
G|----------------------------------------------|
D|----------------------------------------------|
A|----------------------------------------------|
E|----------------------------------------------|

Нежность тихой бывает,
Хрупок нежности след
Закричишь, нежность растает,
Как тает лунный свет

Проигрыш:

      E             Am       
E|-8--10-8-7----10--12-10-8-|
H|--------------------------|
G|--------------------------|
D|--------------------------|
A|--------------------------|
         E|--------------------------| - 2 раза

|E  E|Am  Am|Dm  Am/C|Esus4  E|

Нежность - светлое слово,
Нежность - парус любви
Сквозь года снова и снова
К другу, нежность, плыви

Окончание:

      E             Am                       F        E  F              Dm   A 
E|-8--10-8-7----10--12-10-8-|          E|-8--8-7-5----4--5---------------------|
H|--------------------------|          H|--------------------------------6-----|
G|--------------------------|          G|------------------------4-5-4---------|
D|--------------------------|          D|----------------------7-------7-------|
A|--------------------------|          A|--------------------------------------|
E|--------------------------| - 3 раза E|--------------------------------------|
 
Последние комментарии

"Типичная песня тех лет. Как раз в стиле Синей Птицы!"
 

"Замечательный дуэт вокалистов! Левкин-Дроздов!"
 

"В тексте во время проигрыша: Я в руках твоих был кораблем без ВЕТРИЛ!"
 

"Отличная лирическая песня, красивая, но почему то незаслуженно забытая."
 

"Анатолий, спасибо Вам большое 🤗. Песня у меня на сотике. Спасибо"
Вход на сайт