Accordium Delectus Подборка аккордов
 
Главная > Л > Лунный пёс > Одинокий сектант

Лунный пёс: Одинокий сектант



Вступление:

Начало

|------8---------8---------8------|

|---10---10---10---10---10---10---|

|-9---------9---------9---------9-|

|---------------------------------|

|---------------------------------|

|---------------------------------|

              3 раза                    конец

|:-----------8---------8---------8------:|-------:|

|:--------10---10---10---10---10---10---:|-------:|

|:----------------9---------9---------9-:|-------:|

|:-7------------------------------------:|-7-9---:|

|:---10-0-------------------------------:|-----3-:|

|:--------------------------------------:|-------:|


C                          G        
Вот его новый день
Dm                         Am          
Ускользает как тень
C                      G     
Его вера слаба
Dm                         Am     
И беззвучны слова

А дорога домой -
Путь тернистый, лихой
Лишь у чаши святой
Он обрящет покой

Припев:

C                       G       
Одинокий сектант
Dm                                Am         
Сдал библейский диктант,
C                              G     
Но душа без креста
Dm                          Am      
И в глазах пустота

Проигрыш:

C  G  Dm  Am - 2 раза

Где здесь правда, где ложь,
И куда ты придёшь?
Может, духом умрёшь,
А, может, свет обретёшь

И тогда на века
Примет Божья рука,
Где святая река,
Райские берега

Припев:

Одинокий сектант
Сдал библейский диктант,
Но душа без креста
И в глазах пустота

Одинокий сектант
Сдал библейский диктант,
Но в глазах пустота,
В сердце нет креста

Проигрыш:

C  G  Dm  Am - 2 раза

Смерть и Время царят на земле,
Ты владыками их не зови
Всё, кружась, исчезает во тьме,
Неизменно лишь солнце Любви...

Бой на гитаре (примерные варианты):

или 
 
 
Последние комментарии

"Спасибо! отличная песня."
 

"Интересно кто так бездарно подбирает?! В оригинале слабо что ли?"
 

"Простая и в тоже время прекрасная,душевная песня.Спасибо!"
 

"Дзякуй"
 

"Показать окорды"
Статистика

Онлайн всего: 50
Гостей: 50
Пользователей: 0
Вход на сайт