Accordium Delectus Подборка аккордов
 
Главная > L > Luxor > LUV

Luxor: LUV



Вступление (играется вся песня):

Играть 2 раза

   Dm                       A7                       

E|:------------1-------1----------------0------------|

H|:------3--------3-------3----------------2----2----|

G|:----2----2--------2------------0------------------|

D|:-0---------------------------2----2--------2----2-|

A|:--------------------------0-----------------------|

E|:--------------------------------------------------|

  B-5                       A7                         

E|------------0------------------------0------------:|

H|------3--------3----3----------2--------2----2----:|

G|-----------------------------0----0--------0------:|

D|----3----3--------3----3--------------------------:|

A|-1------------------------0-----------------------:|

E|--------------------------------------------------:|



Ты для меня как доза дня нарка,
Как для алкоголика барка
Как приталенный лепень пижону, 
Что бросил свой брабус на паркинге

Как мечта для романтика,
Как миллион мужчин для нимфоманки,
Как жирный карман для дорогой суки, 
Она с детства ведётся на фантики

Ты нужна мне, словно айфону второй заряд на день,
Как последний глоток свободы для бандита,
Которого скоро посадят

Нужна как в кино о любви - мерзавец,
Как скорость тому, кто бежит спасаясь,
Как успеху нужна чья-то зависть,
Так и вечно злым нужны те, кто весело улыбается

Ты для меня, как для селебрити пафос и лоск,
Для бешеной ауры пара полос,
Для шикарной укладки воск,
Как для зомби мозг

Как разбитое сердце для драмы,
Как самым ужасным грехам бумеранги,
Как лирики СапРано, как план растаману,
Как фарт Жигану

Припев:

Ты нужна мне, как небо земле,
Ты нужна мне, ты нужна мне!
...Как небо земле,
Ты нужна мне, ты нужна мне!


(У тебя в голове я)
Как вода для идущих в пустыне,
Как для глянца икона стиля,
Как для пушки пуля-вылет,
Как время для поколения, что скоро вымрет

Я для тебя как для метала кузня,
Как сопливые треки для грусти,
Как СПИДы на улётной тусе,
Как свежие новости тем, кто не в курсе

Как для чистой любви две половины,
Как характерная глупость блондинок,
Как первая тяга для малолеток,
Как сексуальность для брюнеток

Я нужен тебе, как путешествие в Тай холодным утром,
Как люди, что заполнят огромный Урбан,
Как настоящая страсть в окружении надутых кукол

Как взрыв в бомбе, как сон занятому,
Как жим лифтёру, как забитому мячу повторы
Шутки упоротым, выстрел и порох,
Как шефу гонор и как пояс чемпиону Коннору

Как в дикий шторм короблю якоря,
Как лёд и кола нужны для вискаря,
Как войне отряд, как суициду петля,
Как модели наряд

Припев:

Тебе нужен я, как небу земля,
Тебе нужен я, тебе нужен я!
...Как небу земля,
Тебе нужен я, тебе нужен я!

...Как небо земле,
Ты нужна мне, ты нужна мне!
...Как небо земле,
Ты нужна мне, ты нужна мне!

Окончание:

Играть 2 раза

   Dm                       A7                             

E|:------------1-------1----------------0------------------|

H|:------3--------3-------3----------------2----2----------|

G|:----2----2--------2------------0------------------------|

D|:-0---------------------------2----2--------2----2-------|

A|:--------------------------0-----------------------------|

E|:--------------------------------------------------------|

  B-5                       A7                      конец    

E|------------0------------------------0---------:|-----0-:|

H|------3--------3----3----------2--------2----2-:|-----2-:|

G|-----------------------------0----0--------0---:|-0---0-:|

D|----3----3--------3----3-----------------------:|-----2-:|

A|-1------------------------0--------------------:|-----0-:|

E|-----------------------------------------------:|-------:|

 


 
Последние комментарии

"Показать окорды"
 

"Удивительная, нежная песня как раз для Кати..."
 

"Володья Путен правит на Руси. Всё хорошо при нём кого ты не спроси - Олимпиады проводил, В сакральные места ходил и террористов он в сортире замочил. Но вот когда его немножечко того Тогда узнаем мы всю правду про него - Что из бюджета воровал И с Украиной воевал, И экономике при нём пришёл обвал..."
 

"Классно!!! Несколько раз подряд слушала, нравится песня и исполнение. Спасибо."
 

"Жаль,раньше не слышала эту песню,теперь буду петь про 60 лет.."
Статистика

Онлайн всего: 100
Гостей: 100
Пользователей: 0
Вход на сайт