Accordium Delectus Подборка аккордов
 
Главная > М > МакSим > Одиночка

МакSим: Одиночка


В оригинале на 1 тон выше (F#m).

Можно проиграть этими же аккордами, поставив каподастр на 2-ом ладу


Вступление(примерный вариант боя):

     Em            Em           Am           H7        

E|------0----0--------0---0--------0---0--------2---2-|

H|------0----0--------0---0--------1---1--------0---0-|

G|------0----0--------0---0--------2---2--------2---2-|

D|-0--2---------0-1-2----------------2------------1---|

A|---------2------------2----2-1-0--------0-1-2-------|

E|----------------------------------------------------|

 

      Em           Em           Am         H7          

E|-------0---0--------0---0--------0---0----2-2-2-----|

H|-------0---0--------0---0--------1---1----0-0-0-----|

G|-------0---0--------0---0--------2---2----2-2-2-----|

D|-0-1-2--------0-1-2----------------2----------------|

A|---------2------------2----2-1-0--------0-----------|

E|----------------------------------------------------|

Em                             
Я закрываю своё небо на замок,
           Am           H7                 
Я рисую, дую и плюю в потолок
Em                
Мне любви мало, от него устала...
 Am          H7   
Вообщем, этой ночкой я - одиночка

Припев:

Em                          
Уимс-тымс, ты-ри-ри-ри-ри-ты,
 Am              H7    
Заходи бери ты, забери-бери-пи
Em                    
Забери-бери-пи, забери-бери-пи,
   Am              H7      
Заходи-бери-пи, забери бери-пи

Проигрыш=Вступление.


Мне до утра - только небо, да вода,
Я одна до утра, и остальное ерунда
Эти губи-дуби-ду, пу-у! Пошли они...
Дома посижу, лучше дуну-покурю

Em                 
Мне любви мало, от него устала...
 Am          H7    
Вобщем, этой ночкой я - одиночка

Припев:

Уимс-тымс, ты-ри-ри-ри-ри-ты,
Заходи бери ты, забери-бери-пи
Забери-бери-пи, забери-бери-пи,
     Am              H7
Заходи-бери-пи, забери

Проигрыш=Вступление.

Припев:

Уимс-тымс, ты-ри-ри-ри-ри-ты,
Заходи бери ты, забери-бери-пи
Забери-бери-пи, забери-бери-пи,
 Am              H7     
Заходи-бери-пи, забери и возьми

Окончание=Вступление.

 
Поделись с друзьями:
 
 
Последние комментарии

"Спасибо,очень круто!"
 

"Прекрасно подобранные аккорды!!!"
 

"Сто лет эту песню не слышала"
 

"Друг пел 20 лет назад эту песню под гитару. Оригинал даже не слышал я. Сейчас решил по словам найти эту песню. Такая классная песенка. Что-то имеет эта песня в себе. Спасибо автору!!!"
 

"А что означает если аккорд с дробью обозначен, например: G/H ?.."
Статистика

Онлайн всего: 100
Гостей: 100
Пользователей: 0
Вход на сайт