Accordium Delectus Подборка аккордов
 

Марина Хлебникова: Дожди

Вступление: 

Dm                               Gm                 Dm                                 Gm       

E|--------------------------------------------------------------------|

H|--------------------------------------------------------------------|

G|--------------------------------------------------------------------|

D|----0-0------0-2-3-2-0-----0-0-----------0-0------0-2-3-2-0-----0-0-|

A|-0---------0------------3-------------0---------0------------3------|

E|--------------------------------------------------------------------|

  F                   B                    Em7                  A

E|--------------------------------------------------------------------|

H|--------------------------------------------------------------------|

G|---------------0-2-0--------------------------- ---------------------|

D|---2-3-3-----3-------3-2-0-0-----0-2-3-2-0--------------------------|

A|-3---------3--------------------------------0------------0--------0-|

E|----------------------------------------------3-3------3----3-3-1---|



Dm                                Gm               
Я прошу, поговорите со мной, друзья,
 Dm                                 Gm               
Я прошу, поговорите со мной, друзья
   F                                      B       
Старая, в альбоме есть фотография,
                           Em7                            A    
Мы на ней, словно мафия, или просто семья...

Я прошу, вы привезите с собой дожди
С севера или какой - то другой земли
Истина, ты словно пуля у выстрела,
Так проста и немыслима, привозите дожди...

Припев:

        F                 Dm 
Дожди, косые дожди,
        F                 Dm      
Дожди с далёкого берега
        Gm   Gm+7    Gm7   
Дожди, косые дожди,
Am      Dm        
Дожди...

Проигрыш - 2 раза:

 

        Dm                       C6                 B                             A

E|----------------------------------------------------------|

H|----------------------------------------------------------|

G|---0------------------------------------------------------|

D|-2---2-3--0-------0-3-0-2--------2---0--------------------|

A|------------0------------------3---3-----1--------1-----0-|

 E|-------------------------------------------1----3----3----| 



Я прошу, не уезжайте, любимые,
Я прошу, не уезжайте, любимые
Я прошу, вы возвращайтесь, любимые,
И приезжайте любимыми, я вас очень прошу...

Припев.

Dm                                Gm                
 Я прошу, поговорите со мной, друзья...
Я прошу, поговорите со мной, друзья...
 Я прошу, поговорите со мной, друзья...
 Я прошу, поговорите со мной, друзья...

Бой на гитаре (примерный вариант):

 


 
Последние комментарии

"Мой отец-участник ВОВ. Мать всю войну трудилась на тяжелых работах."
 

"Десантник - это не профессия, это НАЦИОНАЛЬНОСТЬ. Слава ВДВ!"
 

"Очень понравилась песня!!!! 👍
 

"Виктор Кто автор слов и музыки???"
 

"С праздником!"
Статистика

Онлайн всего: 99
Гостей: 99
Пользователей: 0
Вход на сайт