Accordium Delectus Подборка аккордов
 

Марк Бернес: Тёмная ночь (фильм Два бойца)



Примерный вариант


           Am    Am/C    H7                 Am    Am/C    H7                 

E|------------0------0------2----0-------------0------0------2----0---------|

H|------------1------1------0------------------1------1------0--------------|

G|------------2------2------2------------------2------2------2--------------|

D|-----3-2--------------------------0-------------------------------0-------|

A|-0-3------0----0-3----0-2----2------3-2----0----0-3----0-2----2-----3-2---|

E|-------------------------------0--------------------------------0---------|

 

  Am    Am/C   Dm        G7        C                                         

E|----0------0-----1--------1----------0--------0---------------------------|

H|----1------1-----3--------0----------1--------1---------------------------|

G|----2------2-----2--------0----------0--------0---------------------------|

D|--------------0-----------------------------------------------------------|

A|-0------3------------------------3----------------------------------------|

E|------------------------3------------------3------------------------------|

  Тёмная ночь,    только пули свистят по степи,                              

 

  Bm        Dm6     Am/C        Am   H7          E       Am                  

E|----1---------1------------0-----0-----2----------0-------0---------------|

H|----2---------3------------1-----1-----0----------0-------1---------------|

G|----3---------4------------2-----2-----2----------1-------2---------------|

D|-----------0--------------------------------------------------------------|

A|-1------------------3----------0----2-------------------0-----------------|

E|-----------------------------------------------0--------------------------|

     Только ве-тер гудит в проводах,    тускло звёзды мерца-ют              

 

 Am/C      H7       E        

E|-------0--------2--------0-|

H|-----1--------0--------0---|

G|---2--------2--------1-----|

D|-------------------2-------|

A|-3--------2----------------|

E|---------------------------|

 

В тёмную ночь ты, любимая, знаю не спишь,

И у детской кроватки тайком ты слезу утираешь

 

Am/C      H7       E       

E|-------0--------2--------0-|

H|-----1--------0--------0---|

G|---2--------2--------1-----|

D|-------------------2-------|

A|-3--------2----------------|

E|---------------------------|

 

 

  A7                             Dm       Dm/C Dm/H Dm/A                     

E|----0--------0-----0-------0-------1--------1-----------------------------|

H|----2--------2-----2-------2-------3--------3----3----3-------------------|

G|----0--------0-----0-------0-------2--------2----2----2-------------------|

D|----------------2---------------0----------------3----3-------------------|

A|-4--------0------------0------------------3----2----0---------------------|

E|--------------------------------------------------------------------------|

  Как я люблю      глубину твоих ласковых глаз                               

 

  G7                                 C     Dm     H7      E                   

E|----1-------1-----1----------1--------0------1------2------0--------------|

H|----0-------0-----0----------0--------1------3------0------0--------------|

G|----0-------0-----0----------0--------0------2------2------1--------------|

D|---------------0--------------------------0-------------------------------|

A|---------2-------------------------3-------------2------------------------|

E|-3-----------------------3------------------------------0-----------------|

  Как я хочу     к ним прижаться  теперь   гу  -  ба  -  ми                  


  Am    Am/C   Dm      G7       C                                         

E|----0------0-----1------1----------0--------0---------------------------|

H|----1------1-----3------0----------1--------1---------------------------|

G|----2------2-----2------0----------0--------0---------------------------|

D|--------------0---------------------------------------------------------|

A|-0------3----------------------3----------------------------------------|

E|----------------------3------------------3------------------------------|

  Тёмная ночь     разделяет,  любимая,    нас,                             

 

  Bm        Dm6     Am/C        Am   H7       E       Am                  

E|----1---------1------------0-----0-----2-------0-------0---------------|

H|----2---------3------------1-----1-----0-------0-------1---------------|

G|----3---------4------------2-----2-----2-------1-------2---------------|

D|-----------0-----------------------------------------------------------|

A|-1------------------3----------0----2----------------0-----------------|

E|--------------------------------------------0--------------------------|

      И  тревожная,  чёрная    степь   пролегла между нами                

 

Проигрыш:

 

   Am/C    H7                 Am    Am/C    H7                 

E|-----0------2----0-------------0------0------2----0---------|

H|-----1------0------------------1------1------0--------------|

G|-----2------2------------------2------2------2--------------|

D|--------------------0-------------------------------0-------|

A|-0-3----0-2----2------3-2----0----0-3----0-2----2-----3-2---|

E|-----------------0--------------------------------0---------|

 

 

Верю в тебя, в дорогую подругу мою -

Эта вера от пули меня тёмной ночью хранила

Радостно мне, я спокоен в смертельном бою,

Знаю, встретишь с любовью меня, чтоб со мной не случилось

 

Смерть не страшна, с ней встречались не раз мы в степи,

Вот и теперь надо мною она кружится…

Ты меня ждёшь, и у детской кроватки не спишь,

И поэтому знаю: со мной ничего не случится

 

Проигрыш.

 

  Am    Am/C   Dm        G7        C                                         

E|----0------0-----1--------1----------0--------0---------------------------|

H|----1------1-----3--------0----------1--------1---------------------------|

G|----2------2-----2--------0----------0--------0---------------------------|

D|--------------0-----------------------------------------------------------|

A|-0------3------------------------3----------------------------------------|

E|------------------------3------------------3------------------------------|

 

  Bm     Dm6     Am/C      Am   H7     E       Am                    

E|----1------1-------0-------0-----2------0-----------------3-1---5-|

H|----2------3-------1-------1-----0------0---------------1-------5-|

G|----3------4-------2-------2-----2------1-------------2---------5-|

D|--------0-----------------------------------------3-2-----------7-|

A|-1--------------3--------0----2---------------0-3---------------7-|

E|-------------------------------------0--------------------------5-|

      И поэтому знаю: со мной     ничего не случится                 
 


 
Последние комментарии

"Монгол шуудан круче исполнил"
 

"Перебор Пожалуйста"
 

"Класс"
 

"Да где же такой город Саха,кто мне расскажет?Про республику Арцах не слышали,не?На помощь мирным людям гор Арцаха!"
 

"Оперативно,просто молодцы!Огромное спасибо!Звучит классно!!!"
Статистика

Онлайн всего: 40
Гостей: 40
Пользователей: 0
Вход на сайт