Accordium Delectus Подборка аккордов
 

Машина времени: Ночь


Вступление (примерный вариант):


E|-------8-----8---8-----8-----8---|

H|-----6---6-----6---6-----6-----6-|

G|---5-------5---------5-----5-----|

D|-0-------------------------------|

A|---------------------------------|

         E|---------------------------------| - 4 раза

 

E|---------0----------------0----------------0----------------------------------0-------|

H|-----2-------2--------2-------2--------2-------2--------2-----2-----------2-------2---|

G|---2---2---2---2----2---2---2---2----0---0---0---0----0-----0-----0-----0---0---0---0-|

D|------------------2-------------------------------------------------------------------|

A|-0---------------------------------1----------------0---------------------------------|

E|----------------------------------------------------------3-----1-----0---------------|

  

E|---------0----------------0---------------------------------1-----------1-------1-----|

H|-----2-------2--------2-------2--------2-----2----------3-----3---3---3---3---3---3---|

G|---0---0---0---0----0---0---0---0----0-----0-----0----2---2-----0---0>2-----0>2-------|

D|------------------2----------------------------3----0---------------------------------|

A|-0---------------------------------0-----3--------------------------------------------|

E|--------------------------------------------------------------------------------------|


E|----------1----------------|

H|------3-------3------------|

G|----2---2---2---2----------|

D|-0-----------------3-2-0---|

A|-------------------------1-|

E|---------------------------|



E|---------0----------------0----------------0----------------------------------0-------|

H|-----2-------2--------2-------2--------2-------2--------2-----2-----------2-------2---|

G|---2---2---2---2----2---2---2---2----0---0---0---0----0-----0-----0-----0---0---0---0-|

D|------------------2-------------------------------------------------------------------|

A|-0---------------------------------1----------------0---------------------------------|

E|----------------------------------------------------------3-----1-----0---------------|

  

E|---------0----------------0---------------------------------1-----------1-------1-----|

H|-----2-------2--------2-------2--------2-----2----------3-----3---3---3---3---3---3---|

G|---0---0---0---0----0---0---0---0----0-----0-----0----2---2-----0---0>2-----0>2-------|

D|------------------2----------------------------3----0---------------------------------|

A|-0---------------------------------0-----3--------------------------------------------|


E|----------1-----------1-------1------------1-----------1-------1---|

H|------3-----3---3---3---3---3---3------3-----3---3---3---3---3---3-|

G|----2---2-----0---0>2-----0>2--------2---2-----0---0>2-----0>2-----|

D|-0---------------------------------0-------------------------------|

A|-------------------------------------------------------------------|

E|-------------------------------------------------------------------|


Dm                   Dm/F     A7
Ночь, чёрная река длинна на века,
Bdim7            A7    Bdim7   Dm     
Смотри, как эта река широка
          Dm   Dm/F         A7  
Если берега принять за рассвет,
  Bdim7           A7      Bdim7   Gm7       
То будь-то дальнего берега нет

       Am7        Gm7
И переправа непроста,
         Fmaj7         B 
И нет ни брода, ни моста,
           D5/B             
Лишь только лодка в два весла

Проигрыш=Вступление

Я утро берегу на том берегу,
Но до него я доплыть не могу
Лодка в два весла меня бы спасла
Вот только вёсла река унесла

И нас несло в большой реке,
И нам не видно в темноте,
Что берега уже не те...

Проигрыш=Вступление

Dm  Dm+7  Dm7  Dm6  A7  Bdim7  A7  Bdim7 - 2 раза Gm7  Am7  Gm7  Fmaj7  B  D5/B  D5/B

Окончание=Вступление...


 


 
Последние комментарии

"Замечательно!"
 

"Класс"
 

"Моя любимая песня. Слова и музыка трогают душу и придают бодрое настроение!"
 

"спасибо"
 

"Песня огонь!"
Статистика

Онлайн всего: 33
Гостей: 32
Пользователей: 1
EVG_1
Вход на сайт