Accordium Delectus Подборка аккордов
 
Главная > К > Калинкин Михаил > Когда закончится война

Михаил Калинкин: Когда закончится война



Вступление:

  Am      D   G     Em  Am      D       G                                        
E|----------------------------------2-----------3-------------------------------|
H|----0-1-3--------0--------0-1-3---------0-----0-------------------------------|
G|-2------2---0--2---0---2------2-2---0-0---0-----------------------------------|
D|--------0---------------------0-----------------------------------------------|
A|-0---------------------0------------------------------------------------------|
E|------------3------0------------------3-----3---------------------------------|
  Am      D      G     Em       Am      D       G                                
E|------------2-------------0---------------2-------3-------3-----------3-------|
H|----0-1-3---3-------0-----0-------0-1---3-------0-----0-----------0-------0---|
G|-2------2-2----0--2---0-0---0--2------2-----0-0-----0---0---0---0---0---0---0-|
D|--------0-----------------------------0---------------------------------------|
A|-0-----------------------------0----------------------------------------------|
E|---------------3------0-----------------------3---------------3---------------|

G                D                 G     
Когда закончится война,
C                                    D          
И снова можно будет сеять,
H7                        Em      
И боевые ордена
    Cm                           D     
Положат под стекло музеев,

H7                                         Em         
Я выйду в поле в полный рост,
D                                         G          
Сниму стальную тяжесть каски
H7                                 C       
И голову подставлю под
     Am7         D            G       
Ветров всех ветреные ласки

Проигрыш:

  Am      D      G     Em       Am      D       G                
E|------------2-------------0---------------2-----------3-------|
H|----0-1-3---3-------0-----0-------0-1---3-------0---------0---|
G|-2------2-2----0--2---0-0---0--2------2-----0-0---0-----0---0-|
D|--------0-----------------------------0-------------0---------|
A|-0-----------------------------0------------------------------|
         E|---------------3------0-----------------------3---------------| - 2 раза

И можно будет закурить,
Не соблюдая маскировки,
И не бояться угодить
В прицел какой-нибудь винтовки,

И рядом с грохотом идти,
Ведь он не танк а трактор просто,
И у него встать на пути,
  Am7                       D    
Засунув в зубы папироску

H7                                         Em      
И полной горстью взяв зерна,
D                                      G          
Одним броском его развеять
H7                                             C       
Вот только б кончилась война,
Cm              D                  G         
И если можно - поскорее

Окончание:

  Am      D      G     Em       Am      D       G                                   
E|------------2-------------0---------------2-----------3-----3--------------------|
H|----0-1-3---3-------0-----0-------0-1---3-------0---------0----------------------|
G|-2------2-2----0--2---0-0---0--2------2-----0-0---0-----0------------------------|
D|--------0-----------------------------0-------------0----------------------------|
A|-0-----------------------------0-------------------------------------------------|
E|---------------3------0-----------------------3----------------------------------|

  Am      D      G     Em       Am      D       G       C       G       C        G  
E|------------2-------------0---------------2-------3---3---3---3---3---3---3----3-|
H|----0-1-3---3-------0-----0-------0-1---3---------0---1---1---0---0---1---1----0-|
G|-2------2-2----0--2---0-0---0--2------2-----0-0-0---0---0---0---0---0---0---0--0-|
D|--------0-----------------------------0----------------------------------------0-|
A|-0-----------------------------0----------------------3---------------3--------2-|
E|---------------3------0-----------------------3---------------3----------------3-|
 


 
Последние комментарии

"Я бы попробовал её спеть"
 

"Пожалуйста, сделайте мобильное приложение вашего чудесного сайта. На телефоне аккорды не открываются в яндексе"
 

"Душевно"
 

"Да уж"
 

"классно"
Статистика

Онлайн всего: 82
Гостей: 81
Пользователей: 1
Justas
Вход на сайт