Accordium Delectus Подборка аккордов
 
Главная > К > Круг Михаил > Кольщик

Михаил Круг: Кольщик



  Dm              Dm7             Gm                                
E|---------1---------------1---------------3---------------3-------|
H|-----3-----3---3-----3-----3---3-----3-----3---3-----3-----3---3-|
G|---2---2-----2-----2---2-----2-----3---3-----3-----3---3-----3---|
D|-0---------------------------------------------------------------|
A|-----------------3-----------------------------------------------|
E|---------------------------------3---------------3---------------|
  Кольщик,         наколи мне купола                                

   B                               F                                
E|-----------------------------------------1---------------1-------|
H|---------6---------------6-----------1-----1---1-----1-----1---1-|
G|-----7-----7---7-----7-----7---7---2---2-----2-----2---2-----2---|
D|---8---8-----8-----8---8-----8-----------------------------------|
A|-----------------------------------------------------------------|
E|-6---------------6---------------1---------------1---------------|
     Рядом - чудотворный крест с иконами,                           

  Gm               C              Dm             Fmaj7     C        
E|---------3---------------0---------------1-------------0-------0-|
H|-----3-----3---3-----1-----1---1-----3-----3---3-----1-------1---|
G|---3---3-----3-----0---0-----0-----2---2-----2-----2-------0-----|
D|---------------------------------0---------------3---------------|
A|-----------------3---------------------------------------3-------|
E|-3---------------------------------------------------------------|
      Чтоб играли там       колокола                                

  Gm               B               C                                      
E|---------3-------------------------------------------------------------|
H|-----3-----3-------------6-----------------8------------------8--------|
G|---3---3-------------7-----7---7------9------9----9------9------9----9-|
D|-------------------8---8-----8-----10---10-----10-----10---10-----10---|
A|---------------0-------------------------------------------------------|
E|-3-----------3---6---------------8------------------8------------------|
                                           С переливами                   

  Dm                                
E|---------1---------------1-------|
H|-----3-----3---3-----3-----3---3-|
G|---2---2-----2-----2---2-----2---|
D|-0---------------0---------------|
A|---------------------------------|
E|---------------------------------|
И перезвонами                                 


Наколи мне домик у ручья -
Пусть течёт по воле струйкой тонкою,
Чтобы от него портной-судья
Не отгородил меня решёткою

Нарисуй алеющий закат,
Розу за колючей ржавой проволокой
Строчку: "Мама, я не виноват!" -
Наколи, и пусть стереть попробуют

Если места хватит - нарисуй
Лодку с парусами, ветром полными
Уплыву, волки - и вот вам,
Чтобы навсегда меня запомнили

И легло на душу, как покой:
Встретить мать - одно моё желание
Крест коли, чтоб я забрал с собой
Избавление, но не покаяние

Окончание=Куплет

Текст во время окончания:

Не осуждай меня, мама. Я ведь только тем и жил, что знал: ты меня ждёшь.
Я знаю, ты плачешь вечерами и видишь сны, где я, совсем ещё маленький,
Подкрадываюсь к тебе и закрываю твои глаза ладошками.
Ты нарочно говоришь: "Отец? Татьянка?" Я смеюсь: "Нет, нет не угадала!"
Отцу с Танюхой - привет. Деньги в конверте не шли - суки всё вынут,
Но я ж назло им вернусь, потому что ты меня ждёшь...
 


 
Последние комментарии

"Великая песня, только почти забытая."
 

"Красивая песня!"
 

"Мы её в школе играли забыл уже слова и вновь нашёл Как же давно было играли на самопалах"
 

"Прекрасная песня!"
 

"ЗДОРОВО"
Статистика

Онлайн всего: 52
Гостей: 52
Пользователей: 0
Вход на сайт