Accordium Delectus Подборка аккордов
 
Главная > К > Круг Михаил > Мне тебя не понять

Михаил Круг: Мне тебя не понять



Смотреть в тональности Am


Вступление (примерный вариант перебора):

 Csus2         C9       G#maj7-5         G            

E|----------------------------------------------------|

H|-------3------------3------------3------------3-----|

G|-----5---5--------5---5--------5---5--------4---4---|

D|---5-------5----5-------5----5-------5----5-------5-|

A|-3--------------------------------------------------|

E|--------------6------------4------------3-----------|

 Csus2         C9       G#maj7-5         G            

E|----------------------------------------------------|

H|-------3------------3------------3------------3-----|

G|-----5---5--------5---5--------5---5--------4-------|

D|---5-------5----5-------5----5-------5----5---------|

A|-3--------------------------------------------------|

E|--------------6------------4------------3-----------|


                         G#-5 G                Csus2   Cm7
Мне тебя не понять, и по мне это видно,
                      D# B                        D#  G
Что я так одинок    даже рядом с тобой,
                            G#        C7     Fm      G#-5
И мне так нелегко, и до боли обидно...
                      Csus2          G     Csus2
Что же ты не смогла дать тепло и покой?

Мне тебя не понять - это странная новость,
Очарован тобой и не вижу пути,
По которому нас проведёт невесомость,
По которому нам нет надежды пройти

Просьба "Не уходи!" ничего не исправит,
И прощаясь со мной, все обиды прощай
Мне тебя не забыть, Бог тебя не оставит,
Всё прошло, унеслось, лишь осталась печаль...

Мне тебя не понять, и как глупы вопросы,
Почему нас судьба разлучила с тобой
Только помню я всё: счастье, горькие слёзы,
И, как сон, унесло тишину и покой

Проигрыш:

G#-5  G  Csus2  Cm7  D#  B  D#  G  G#  C7  Fm  G#-5  Csus2  G  Csus2  Csus2

                  G#-5
Так храни тебя Бог...

Переход на 1 тон выше (Dm)

                            B-5 A7                      Dsus2   Dm/C
Так храни тебя Бог     и твой ангел-хранитель,
                           F C                           F    A7
Но я верю в мечту, что когда-нибудь вновь
                         B             D7    Gm      B-5
Я открою ту дверь в золотую обитель,
                           Dsus2        A7    Dsus2  A7
Где душевный покой, тишина и любовь
                         B             D7    Gm      B-5
Я открою ту дверь в золотую обитель,
                   Dsus2        A7     Dsus2
Где душевный покой, тишина и любовь...

Окончание:

B-5  A7  Dsus2  Dm/C  F  C  F  A7  B  D7  Gm  B-5  Dsus2  A7  Dsus2...
 


 
Последние комментарии

"Либерастическая хуйня"
 

"Какая светлая песня..."
 

"КЛАСС!!!!!"
 

"Кокой бой"
 

"А каким перебором здесь лучше всего разнообразить вальсовый бой?.."
Статистика

Онлайн всего: 122
Гостей: 122
Пользователей: 0
Вход на сайт