Accordium Delectus Подборка аккордов
 
Главная > К > Круг Михаил > Мне тебя не понять

Михаил Круг: Мне тебя не понять



В оригинале на полтора и на два с половиной тона выше (Cm и Dm).

Можно проиграть этими же аккордами, поставив каподастр на 3-ем или 5-ом ладу


Вступление (примерный вариант перебора):

 Asus2         A9        Fmaj7-5          E            

E|----------------------------------------------------|

H|-------0------------0------------0------------0-----|

G|-----2---2--------2---2--------2---2--------1---1---|

D|---2-------2----2-------2----2-------2----2-------2-|

A|-0--------------------------------------------------|

E|--------------3------------1------------0-----------|

 Asus2         A9        Fmaj7-5          E            

E|----------------------------------------------------|

H|-------0------------0------------0------------0-----|

G|-----2---2--------2---2--------2---2--------1-------|

D|---2-------2----2-------2----2-------2----2---------|

A|-0--------------------------------------------------|

E|--------------3------------1------------0-----------|


                          F-5  E                Asus2   Am/G
Мне тебя не понять, и по мне это видно,
                      C   G                        C    E
Что я так одинок    даже рядом с тобой,
                             F         A7     Dm      F-5  
И мне так нелегко, и до боли обидно...
                      Asus2          E     Asus2
Что же ты не смогла дать тепло и покой?

Мне тебя не понять - это странная новость,
Очарован тобой и не вижу пути,
По которому нас проведёт невесомость,
По которому нам нет надежды пройти

Просьба "Не уходи!" ничего не исправит,
И прощаясь со мной, все обиды прощай
Мне тебя не забыть, Бог тебя не оставит,
Всё прошло, унеслось, лишь осталась печаль...

Мне тебя не понять, и как глупы вопросы,
Почему нас судьба разлучила с тобой
Только помню я всё: счастье, горькие слёзы,
И, как сон, унесло тишину и покой

Проигрыш:

F-5  E  Asus2  Am/G  C  G  C  E  F  A7  Dm  F-5  Asus2  E  Asus2  Asus2

Так храни тебя Бог и твой ангел-хранитель,
Но я верю в мечту, что когда-нибудь вновь
Я открою ту дверь в золотую обитель,
Где душевный покой, тишина и любовь
Я открою ту дверь в золотую обитель,
Где душевный покой, тишина и любовь...

Окончание:

F-5  E  Asus2  Am/G  C  G  C  E  F  A7  Dm  F-5  Asus2  E  Asus2  Asus2...
 


 
Последние комментарии

"Либерастическая хуйня"
 

"Какая светлая песня..."
 

"КЛАСС!!!!!"
 

"Кокой бой"
 

"А каким перебором здесь лучше всего разнообразить вальсовый бой?.."
Статистика

Онлайн всего: 111
Гостей: 111
Пользователей: 0
Вход на сайт