Accordium Delectus Подборка аккордов
 
Главная > К > Круг Михаил > Владимирский централ

Михаил Круг: Владимирский централ



Вступление:

E|-2----0-----------------0--3----2----0------------0-|
H|-----------3--2----3--------------------2----3------|
G|----4----4-------0----0-------0----0-------3----3---|
D|----------------------------------------------------|
A|-2--------------------------------------------------|
E|--------------3------------0------------2-----------|

E|-2----0-----------------0--2----0-----------------0--2----0-------2-|
H|-----------3--2----3-----------------3--2----3-------2---------3--2-|
G|----0----0--------------------2----2-------3----3----4--3----3----3-|
D|-----------------2----2----0-------------------------2------------4-|
A|--------------0-----------------------------------------------------|
E|-3--------------------------------------2---------------------------|

Em                             F#      
Весна опять пришла,
Hm                  Gmaj7  
И лучики тепла
Em                        F#     Am     H7    
Доверчиво глядят в моё окно

Em                           F#         
Опять защемит грудь,
Hm                          Gmaj7       
И в душу влезет грусть,
Em                        F#       Hm      
По памяти пойдёт со мной

Проигрыш:

|Hm  Hm|Em  Em|Hm  Hm|F#  F#| - 2 раза

Пойдёт, разворошит
И вместе согрешит
С той девочкой, что так давно любил

С той девочкой ушла,
С той девочкой пришла...
Забыть её не хватит сил!

Припев:

Em                               F#                                
Владимирский централ, ветер северный,
    Hm  Hm7            Gmaj7                               
Этапом из Твери, зла немерено -
Em                 A                       D   D7 
Лежит на сердце тяжкий груз

G                                H7                              
Владимирский централ, ветер северный,
Am       H7           Em                                    
Когда я банковал, жизнь разменяна,
Hm                                 F#                              Hm      
Hо не очко, обычно, губит, а к одиннадцати туз

Проигрыш:

|Hm  Hm|Em  Em|Hm  Hm|F#  F#| - 2 раза

Там, под окном "зэка",
Проталина тонка,
И всё ж ты не долга, моя весна

Я радуюсь, что здесь
Хоть это-то то, но есть...
Как мне твоя любовь нужна!

Припев:

Владимирский централ, ветер северный,
Этапом из Твери, зла немерено -
Лежит на сердце тяжкий груз

Владимирский централ, ветер северный,
Хотя я банковал, жизнь разменяна,
Hm                                 F#                              Em      
Hо не очко, обычно, губит, а к одиннадцати туз

Проигрыш:

|Em  F#|Hm  Gmaj7|Em  F#|Am  H7|

|Em  F#|Hm Hm7 Gmaj7|Em  F#|Hm  Hm|

Припев:

Владимирский централ, ветер северный,
Этапом из Твери, зла немерено -
Лежит на сердце тяжкий груз

Владимирский централ, ветер северный,
Хотя я банковал, жизнь разменяна,
Hm                                 F#                              Hm       
Hо не очко, обычно, губит, а к одиннадцати туз

Окончание:

|Hm  Hm|Em  Em|Hm  Hm|F#  F#|...

Бой на гитаре (примерный вариант):

 


 
Последние комментарии

"Либерастическая хуйня"
 

"Какая светлая песня..."
 

"КЛАСС!!!!!"
 

"Кокой бой"
 

"А каким перебором здесь лучше всего разнообразить вальсовый бой?.."
Статистика

Онлайн всего: 104
Гостей: 104
Пользователей: 0
Вход на сайт