Accordium Delectus Подборка аккордов
 
Главная > М > Магомаев Муслим > Город мой Баку

Муслим Магомаев: Город мой Баку



Вступление:

Gm

E|---------------------------------------------------------------------------------|

H|---------------------------------------------------------------------------------|

G|---------------------------------------------------------------------------------|

D|-----5-----3-5--3--3----------5-----3-5--5--5-5--------5-----3-5--3--3-----------|

A|---------5-----------5------------5------------------------5-----------5---------|

       E|-3-3----------------------3-3----------------------3-3-----------------------3-3-|-3 раза

 

 Gm                   C             Gm                     C                F   Gm  

E|------1-----1------------------------------1-----3---------------------------1-3-|

H|-3--3-----3---3-1---1-2-1-----1-1----3-1-3-----3---3-1---1-2-1-----1-1----3------|

G|------------------3-------3-3--------------------------3-------3-3---------------|

D|---------------------------------------------------------------------------------|

A|---------------------------------------------------------------------------------|

E|---------------------------------------------------------------------------------|


Gm                                 
Ушли от моря горы,
     Cm           D7  Gm   C7 Gm
Жажду утолив,
Gm                                      
И лёг на берег город,
D#         D7    Gm       
Охватив залив

Gm                D#                     
Он стар и вечно молод,
Cm/A               D7  Gm        
Здесь на берегу
Gm    Gm7     D#                    
Залив глядит на город,
Cm/A           D7      Gm         
Город мой, Баку!

Припев:

Cm                                          
Ты весь из золота соткан,
F                       B    
И на склоне дня
D#                A7                    
Закатным золотом окон
D7                  Gm     
Одаришь меня

Cm7                  F                            
А ночью звёзды бледнеют
Bmaj7                               
От твоих огней,
D#                 A7
И нет мне неба роднее,
D7                      Gm        
Нет земли родней!

Проигрыш: Cm7  F  Bmaj7  Bmaj7  D#  A7  D7  Gm     2-я часть вступления

Волна вдали качает
Стаи кораблей,
Белей нет в мире чаек,
Моря голубей

На город наглядеться
Вновь я не могу
И я вхожу, как в детство,
В город мой, Баку!

Припев.

Gm             C      Gm   C  
Нет земли родней!
Нет земли родней!
  Нет земли родней...

Примерный вариант боя:

 


 
Последние комментарии

"Друг пел 20 лет назад эту песню под гитару. Оригинал даже не слышал я. Сейчас решил по словам найти эту песню. Такая классная песенка. Что-то имеет эта песня в себе. Спасибо автору!!!"
 

"А что означает если аккорд с дробью обозначен, например: G/H ?.."
 

"Есть в Нью-Орлеане дом один, известный как Солнца восход. Он многих несчастных парней загубил, божусь, я ведь сам такой."
 

"Сильно..."
 

"Всё переблось шофера хуже шофёрок."
Статистика

Онлайн всего: 59
Гостей: 59
Пользователей: 0
Вход на сайт