Accordium Delectus Подборка аккордов
 

Наутилус Помпилиус: Крылья




Вступление (табы, красным обозначено соло):

  Em                           H                           

E|-7------5--------------------5--------------------------|

H|---0-0----0-0--8-0-0--7-0-0----4-4--8-4-4--7-4-4----4-4-|

G|---0-0----0-0----0-0----0-0----4-4----4-4----4-4----4-4-|

D|---2-2----2-2----2-2----2-2----4-4----4-4----4-4----4-4-|

A|-----------------------------2------2------2------2-----|

E|-0------0------0------0---------------------------------|


  Am                           H    Cdim7    H             

E|-5-----------------------------------------7------------|

H|---1-1--8-1-1--7-1-1--5-1-1----4-4----4-4----4-4----4-4-|

G|---2-2----2-2----2-2----2-2--8-4-4--5-2-2----4-4----4-4-|

D|---2-2----2-2----2-2----2-2----4-4----4-4----4-4----4-4-|

A|-0------0------0------0------2------3------2------2-----|

         E|--------------------------------------------------------| - 2 раза


Em                                     
Ты снимаешь вечернее платье
  H                      
Стоя лицом к стене,
     Am                       
И я вижу свежие шрамы
       H            Cdim7           H
На гладкой, как бархат, спине

Мне хочется плакать от боли
Или забыться во сне
Где твои крылья, которые
Так нравились мне?

Припев:

   F          Em     
Где твои крылья,
     F                       Em 
Которые нравились мне?
  D          Em    
Где твои крылья,
    D                       Em
Которые нравились мне?


Когда-то у нас было время,
Теперь у нас есть дела -
Доказывать, что сильный жрёт слабых,
Доказывать, что сажа бела

Мы все потеряли что-то
На этой безумной войне
Кстати, где твои крылья,
Которые нравились мне?

Припев.

Я не спрашиваю сколько у тебя денег,
Не спрашиваю сколько мужей
Я вижу, ты боишься открытых окон
И верхних этажей

И если завтра начнётся пожар,
И все здание будет в огне,
Мы погибнем без этих крыльев,
Которые нравились мне

Припев.
 


 
Последние комментарии

"Спасибо"
 

"Либерастическая хуйня"
 

"Какая светлая песня..."
 

"КЛАСС!!!!!"
 

"Кокой бой"
Статистика

Онлайн всего: 30
Гостей: 30
Пользователей: 0
Вход на сайт