Accordium Delectus Подборка аккордов
 
Главная > N > Nazareth > Miss Misery

Nazareth: Miss Misery



Вступление:

  C#5>D#5          G#5 F#5 C#5>D#5                  G#5 F#5 C#5>D#5
E|----------------------------------------------------------------|
H|----------------------------------------------------------------|
G|-6>8-8----6>8-8----------6>8-8----6>8-8----6>8-8----------6>8-8-|
D|-6>8-8----6>8-8----6--4--6>8-8----6>8-8----6>8-8----6--4--6>8-8-|
A|-4>6-6----4>6-6----6--4--4>6-6----4>6-6----4>6-6----6--4--4>6-6-|
E|-------------------4--2-----------------------------4--2--------|

G#5>B5                           C#5>D#5               
Since you came into my life
             G#5>B5     D#5 C#5
It's the same old situation
G#5>B5                        C#5>D#5                   
Empty days and lonely nights
                   G#5>B5                D#5 C#5
Filled with bitterness and frustration

Walking lonely in the cold
Trying to find the answer
Spend my money on a crystal ball
And the charms of a gypsy dancer

             G#5>B5                D#5>F5             D#5 C#5 B5
Trying to break the spell you hold on me

Припев:

                 F#5 G#5 B5
You're miss mi---se---ry
       F#5       G#5      B5
That song you lay on me
            F#5 G#5       B5
Set me free,  set me free
  F#5     G#5     D#5   
Please, please, please

Проигрыш:

  G#5>B5          D#5 C#5 G#5>B5                   D#5 C#5 G#5>B5 
E|----------------------------------------------------------------|
H|----------------------------------------------------------------|
G|-------------------8--6-----------------------------8--6--------|
D|-6>8-8----6>8-8----8--6--6>8-8----6>8-8----6>8-8----8--6--6>8-8-|
A|-6>8-8----6>8-8----6--4--6>8-8----6>8-8----6>8-8----6--4--6>8-8-|
E|-4>6-6----4>6-6----------4>6-6----4>6-6----4>6-6----------4>6-6-|

Everyday is filled with shame
My nights are filled with anger
Hollow lies, forced denial
If you told the truth I can't remember

You know I've got to find my way
Got to find a reason
Got to find your weakness
So I can end your witching season

Got to break the spell you hold on me

Припев.

Проигрыш:

  C#5>D#5          G#5 F#5 C#5>D#5                  G#5 F#5 C#5>D#5
E|----------------------------------------------------------------|
H|----------------------------------------------------------------|
G|-6>8-8----6>8-8----------6>8-8----6>8-8----6>8-8----------6>8-8-|
D|-6>8-8----6>8-8----6--4--6>8-8----6>8-8----6>8-8----6--4--6>8-8-|
A|-4>6-6----4>6-6----6--4--4>6-6----4>6-6----4>6-6----6--4--4>6-6-|
E|-------------------4--2-----------------------------4--2--------|

  D#5>F5                B5 G#5 D#5>F5                          B5 G#5 D#5
E|----------------------------------------------------------------------|
H|----------------------------------------------------------------------|
G|-8>10-10----8>10-10----------8>10-10----8>10-10----8>10-10----------8-|
D|-8>10-10----8>10-10----8--6--8>10-10----8>10-10----8>10-10----8--6--8-|
A|-6>8--8-----6>8--8-----8--6--6>8--8-----6>8--8-----6>8--8-----8--6--6-|
E|-----------------------6--4-----------------------------------6--4----|

Can't think how I got myself
Caught up in this nightmare
Evil schemes, midnight screams
Come on somebody listen to my prayer

I'd give all I've got to give
Just to find my way out
Got it going but I can't let go
I'm trapped on this crazy 'round about

Trying to break the spell you hold on me

Припев - 3 раза.
 


 
Последние комментарии

"Волшебно-ЖИВОЕ иполнен е"
 

"Очень симпатичная песня! Простые слова с глубоким смыслом. Хочется петь и петь.👍"
 

"Красивая песня."
 

"Классно поёт"
 

"Спасибо вам ребята!!! Просто родник чистоты музыки....Песняры- на века!!!!!"
Статистика

Онлайн всего: 106
Гостей: 106
Пользователей: 0
Вход на сайт