Accordium Delectus Подборка аккордов
 
"
Главная > Неизвестные исполнители > Колыбельная для дочки

Неизвестный исполнитель: Колыбельная для дочки



Вступление:

   A7     Dm  G        C   Dm6     Am     E7   Gm  
E|------------5-----------------------------------|
H|-----5-8-6-----8-----5--------5-6-5-----------5-|
G|---6--------------7-------7-7-------------------|
D|-7-----------------------------------7--7--6----|
A|------------------------------------------------|
E|------------------------------------------------|
   A7     Dm   G       C    Dm   Am     E7   Am    
E|------------------------------------------------|
H|-------8-6---------6-5---4>5--------------------|
G|-----6-----------4------------7-5--4------------|
D|-7-7---------5-5----------------------7--6--7---|
A|------------------------------------------------|
E|------------------------------------------------|

Am                             
Спят пожарные машины,
Dm                                           
На посту фасадный спит
E7                             
Спят спасатели мужчины,
Am                                 E7      
И начкар во сне храпит

Am                                    
Командир спит отделения,
A/C#            A       A7   Dm            
И в дежурке тоже тишь
  Dm    Dm6   Am/C    Am       
Спит начальник управления,
Dm                    E7      Am            
Почему же ты не спишь?

Припев:

 A7  Dm    G     C   
Баю-бай, баю-бай,
 Dm6   Am       E7  Gm
Спи, дочурка, засыпай
 A7  Dm    G     C   
Баю-бай, баю бай,
 Dm     Am       E7  Am 
Спи, дочурка, засыпай


Спи, сокровище родное,
Общим весом три кило
Я подгузником накрою
Свои очи и чело

Что ты смотришь не моргая,
Перепутав день и ночь?
Если папу уважаешь,
Засыпай скорее, дочь!

Припев.
 
Проигрыш=Вступление

Кулачки закрутят дули,
Носик сморщится опять
Тёща в кухне бьёт кастрюлей,
Ей на зятя наплевать

Пять утра, не спит малютка -
Вся характером в жену
Через три часа на сутки -
Я не выдержу, усну

Припев.

Заплету тебе косички
И в беду тебя не дам
Обойдёшься без сестрички,
Не до мамы по ночам

Вот подъём, играет прытко
Мой мобильный телефон
Я проснулся, дочь с улыбкой 
Охраняет папин сон

Припев.

Окончание:

   A7     Dm  G        C   Dm6     Am     E7   Gm  
E|------------5-----------------------------------|
H|-----5-8-6-----8-----5--------5-6-5-----------5-|
G|---6--------------7-------7-7-------------------|
D|-7-----------------------------------7--7--6----|
A|------------------------------------------------|
E|------------------------------------------------|

 A7  Dm    G     C   
Баю-бай, баю бай,
 Dm     Am       E7  Am
Спи, дочурка, засыпай

Бой на гитаре (примерный вариант):

 
Поделись с друзьями:
 
 
Последние комментарии

"Тогда другим - с крутых яиц бульон"
 
Борис Блохин «БИРТМАН: Иволга

"Ну и хрень."
 

"Замечательная песня."
 

"лажа полнейшая"
 

"давно эту песню мы ждали -спасибо"
Настройка гитары
1-ая струна E (ми)  

2-ая струна H (си)  

3-я струна G (соль) 

4-ая струна D (ре) 

5-ая струна A (ля) 

6-ая струна E (ми) 
Статистика

Онлайн всего: 83
Гостей: 83
Пользователей: 0
Вход на сайт