Accordium Delectus Подборка аккордов
 
Главная > Д > Джигурда Никита > Люблю тебя сейчас

Никита Джигурда: Люблю тебя сейчас

 


Вступление:

E|-------15-13-12----------------12-9--------------|

H|-10-------------15-11---------------10-----------|

G|-------------------------12------------9-12---10-|

D|-------------------------------------------------|

A|-------------------------------------------------|

E|-------------------------------------------------|

 

   Dm                Gm    A7             Dm       

E|-------15-13-12----------------12-9------------|

H|-10-------------15-11---------------10---------|

G|-------------------------12------------9-9---7-|

D|-----------------------------------------------|

A|-----------------------------------------------|

E|-----------------------------------------------|


      Dm                      Gm                   
Люблю тебя сейчас, не тайно - напоказ,
      A7                         Dm                   
Не "после" и не "до" в лучах твоих сгораю
      Dm              Dm/C Gm                   
 Навзрыд или смеясь, но  я люблю сейчас,
       A7                           Dm                     
А в прошлом - не хочу, а в будущем - не знаю

В прошедшем "я любил" - печальнее могил,
Всё нежное во мне бескрылит и стреножит
Хотя поэт поэтов говорил:
"Я вас любил, любовь ещё, быть может..."

Проигрыш:

   Dm                Gm    A7              Dm       

E|-------15-13-12----------------12-9--------------|

H|-10-------------15-11---------------10-----------|

G|-------------------------12------------9-12---10-|

D|-------------------------------------------------|

A|-------------------------------------------------|

E|-------------------------------------------------|

 

   Dm                Gm    A7             Dm       

E|-------15-13-12----------------12-9------------|

H|-10-------------15-11---------------10---------|

G|-------------------------12------------9-9---7-|

D|-----------------------------------------------|

A|-----------------------------------------------|

E|-----------------------------------------------|


(Так говорят о брошенном, отцветшем -
И в этом жалость есть, и снисходительность,
Как к свергнутому с трона королю...
Есть в этом сожаленье об ушедшем
Стремленьи, где утеряна стремительность,
                                           И, как бы, недоверие к "я люблю" - текст во время проигрыша)


Люблю тебя теперь без обещаний - верь,
Мой век стоит сейчас - я вен не перережу!
Во время, во время, в продолжение теперь -
Я прошлым не дышу и будущим не брежу

Приду и вброд, и вплавь к тебе, хоть обезглавь,
С цепями на ногах, и с гирями по пуду
Ты только, по ошибке, не заставь,
Чтоб после "я люблю" добавил я "и буду"

Проигрыш:

   Dm                Gm    Em7 A7          Dm       

E|-------15-13-12----------------12-9--------------|

H|-10-------------15-11---------------10-----------|

G|-------------------------12------------9-12---10-|

D|-------------------------------------------------|

A|-------------------------------------------------|

E|-------------------------------------------------|

 

   Dm                Gm    Em7 A7         Dm       

E|-------15-13-12----------------12-9------------|

H|-10-------------15-11---------------10---------|

G|-------------------------12------------9-9---7-|

D|-----------------------------------------------|

A|-----------------------------------------------|

E|-----------------------------------------------|


(Есть горечь в этом "буду", как ни странно,
Подделанная подпись, червоточина,
И лаз для отступленья, про запас,
Бесцветный яд на самом дне стакана
И словно настоящему пощечина -
                                             Сомненье в том, что "я люблю" сейчас  - текст во время проигрыша)

Проигрыш:

   Dm Dm/C            Bmaj7              

E|--------------------------------------|

H|-10-----------------------------------|

G|-------10--10-10-9--9-9-7--7--6-7-9-7-|

D|--------------------------------------|

A|--------------------------------------|

E|--------------------------------------|

 

       Gm           Dm/F           Bmaj7    A7+5 A7     Dm   

E|---------------------------------------------------------|

H|-----11--10-8--10--10------------------------------------|

G|-6-7-------------------10-9-7----6-7----6-7-10--9----7-7-|

D|---------------------------------------------------------|

A|---------------------------------------------------------|

E|---------------------------------------------------------|


Смотрю французский сон с обилием времён,
Где в будущем - не так, и в прошлом по-другому
К позорному столбу я пригвождён,
К барьеру вызван я, языковому

Ах, разность в языках! Не положенье - крах!
Но выход мы с тобой поищем - и обрящем
Люблю тебя и в сложных временах,
И в будущем, и в прошлом, настоящем!

Окончание:

   Dm                Gm    A7              Dm        

E|-------15-13-12----------------12-9--------------|

H|-10-------------15-11---------------10-----------|

G|-------------------------12------------9-12---10-|

D|-------------------------------------------------|

A|-------------------------------------------------|

E|-------------------------------------------------|

 

   Dm                Gm    A7             Dm       

E|-------15-13-12----------------12-9------------|

H|-10-------------15-11---------------10---------|

G|-------------------------12------------9-9---7-|

D|-----------------------------------------------|

A|-----------------------------------------------|

         E|-----------------------------------------------| - 4 раза

 

   Dm                Dm   

E|-------15-13-12-------|

H|-10-------------15-10-|

G|----------------------|

D|----------------------|

A|----------------------|

E|----------------------|

Бой на гитаре (примерный вариант):

 


 
Последние комментарии

"Благодарю за песню!Мелодичная и красивая,спели великолепно! Цепляет струнки души!"
 

"А я слышал вариант: От вселенской ПОГОНИ не уйти ..."
 

"Классно, а кто текст написал?)"
 

"Нормально. Мы ее в армии лабали ДМБ-82"
 

"Класс!"
Статистика

Онлайн всего: 89
Гостей: 89
Пользователей: 0
Вход на сайт