Accordium Delectus Подборка аккордов
 

Николай Караченцов и Павел Смеян: Вакханалия азарта (фильм Трест, который лопнул)


Вступление:

   D             A   

E|-2>0-------0-----|

H|-----3---3---0>2-|

G|-------2---------|

D|-0---------------|

A|-------------0---|

E|-----------------|


               D               D/C   
Что нам страсти по Матфею -
          Hm            Hm/A
Как щекотка для калек
         Em           Em7
Мир играет в лотерею
       Em/C#          F# A
Вот уже который век

        D                     D/C      
Поберечь бы шанс назавтра,
           Hm              Hm/A    
Но бренчит в кармане медь...
         G       Gm             D/F#    Hm      
Вакханалия азарта, вакханалия азарта...
             Em   A                  D     A
Ставка жизнь, и ставка - смерть


Словно лошади по кругу,
Вслед за призрачной мечтой
Мчатся люди друг за другом...
Ипподром - весь шар земной

Вся земля - тотализатор:
Было так, и будет впредь!
Вакханалия азарта, вакханалия азарта...
Ставка жизнь, и ставка - смерть


Чёт иль нечет, либо-либо -
Судьбы ставим на авось
Пулей крупного калибра -
Сердце, туз червей, насквозь

Хоть краплёна кровью карта -
Проиграешь, как ни меть
Вакханалия азарта, вакханалия азарта...
Ставка жизнь, и ставка - смерть!

Окончание:

   D            D7/C            G/H           Gm/B    A       
E|-------2--------------2--------------3--------------------|
H|-----3---3----------1---1----------3---3----------3-----2-|
G|---2-------2------2-------2------4-------4------3-----2---|
D|-0--------------------------------------------------------|
A|----------------3--------------2--------------1-----0-----|
E|----------------------------------------------------------|
 


 
Последние комментарии

"Класс!"
 

"👍🏻Класс!"
 

""Да уж"-,как говорил Киса Воробышкин"
 

"После ухода Б.Грачевского понимаешь, что это искреннее признание."
 

"Замечательная.."
Статистика

Онлайн всего: 105
Гостей: 105
Пользователей: 0
Вход на сайт